Weezer

home > Weezer

Undone Tab

Weezer

Difficulty: nolevelnolevel

tuner correct add songbook print version text version save to e-mail
chordsukulelecavacokeyboardtabbassdrumsharmonicsflute Guitar Pro
chords

Undone

  		                                                              
|------------------------------------------------------------------------ 
|-------0-------0-------0-------0---------------------------------------- 
|-----3-------3-------5-------3------------------------------------------ 
|---2-------2-------4-------2-------------------------------------------- 
|---------3-------5-------3---------------------------------------------- 
|-3---------------------------------------------------------------------- 
 
 
                                                                       
                                                                       
Clean                                                                  
|--3-----0-----2-----0--------------------------------------------------- 
|--3-----1-----3-----1--------------------------------------------------- 
|--0-----0-----2-----0--------------------------------------------------- 
|--0-----2-----0-----2--------------------------------------------------- 
|--2-----3-----0-----3--------------------------------------------------- 
|--3--------------------------------------------------------------------- 
 
 
                                                                       
                                                                       
distortion               play these chord under solo:                  
|------------------------------------------------------------------------ 
|------------------------------------------------------------------------ 
|----5--7-----------------------------------------------------8--10------ 
|-5--5--7--------------------------------------------------8--8--10------ 
|-5--3--5--------------------------------------------------8--6--8------- 
|-3--3--5--------------------------------------------------6------------- 
 
 
Ce fichier a ete cree par Tab 1.1 
-- 
| Internet: Bruno Lamoureux 101:160/600 
|Disclaimer: The views of this user are strictly his own and/or his server. 
|ABS International is a Mail Gateway in Montreal, Canada serving this system. 
 

	  

Search Paypal
auto scroll beats size up size down change color hide chords drawings
tab show chords e-chords YouTube Clip e-chords hide all tabs e-chords go to top tab