Weezer

home > Weezer

Undone Bass Tab

Weezer

Difficulty: nolevelnolevel

by Seitoshi

tuner correct add songbook print version text version save to e-mail
chordsukulelecavacokeyboardtabbassdrumsharmonicsflute Guitar Pro
chords

Undone

  		e-mail: [email protected] 


G------------------------------------------------ 
D------------------------------------------------ 
A---------------2-2-2-2-4-4-4-4-2-2-2-2 
E---2-2-2-2----------------------------------- 


G--------------------------------------------- 
D--------------------------------------------- 
A-------------5-5-5-5-7-7-7-7-5-5-5-5 
E--5-5-5-5--------------------------------- 


G---------------------------------------------- 
D---------------------------------------------- 
A--------------2-2-2-2-4-4-4-4-2-2-0-0 
E---2-2-2-2--------------------------------- 
	  

Search Paypal
auto scroll beats size up size down change color hide chords drawings
tab show chords e-chords YouTube Clip e-chords hide all tabs e-chords go to top tab