Hillsong

home > Hillsong

The Stand Tab

Hillsong

Difficulty: EasyEasy

by Wellder%5FAugusto

tuner correct add songbook print version text version save to e-mail
chordsukulelecavacokeyboardtabbassdrumsharmonicsflute Guitar Pro
chords

The Stand

Year: 2006 - Album: United We Stand

  		The Stand – Hillsong – 2006 / United We Stand.  

Esse solinho repete várias vezes durante a música  

e|----------------------------------------------------9*--|  
B|------7-----9-----10----9-----7-----9-----10------------|  
G|----7-----7-----7-----7-----7-----7-----7-------7-------|  
D|--9-----9-----9-----9-----9-----9-----9-------9---------|  
A|--------------------------------------------------------|  
E|--------------------------------------------------------|  

* Esse último (9) repete a cada fim de tempo no solinho.  

******************************************  

e|-9----9-----12---12--------------------------------|  
B|---10---10----10---10-12---12----14--15------------|  
G|------------------------13---13--------------------|  
D|---------------------------------------------------|  
A|---------------------------------------------------|  
E|---------------------------------------------------|  

Esse solinho também repete várias vezes no fim da musica.  
Só ouvindo pra entender!  
Espero ter ajudado!  
Fiquem com Deus!!  
______________________________________________________  
Colaboração: Wellder_Augusto - [email protected]  

	  

Search Paypal
auto scroll beats size up size down change color hide chords drawings
tab show chords e-chords YouTube Clip e-chords hide all tabs e-chords go to top tab