The Raveonettes

Hark! The Herald Angels Sing

The Raveonettes

tabs

save to print version add songbook text version e-mail correct tuner
chordsukulelecavacokeyboardtabbassdrumsharmonicaflute Guitar Pro
close

there isn't a video lesson for this song

chords

Hark! The Herald Angels Sing

(Traditional)

	  		chords by: 	WayneXG95 
 

4/4 time 
 
   +   +   +   +    +   +   +   +    +   +   +   +    +   +   +   +   
e: ----------------|----------------|----------------|---------------- 
B: ----------------|----------------|1---1---1-------|---------------- 
G: ----------------|----2---2---0---|--------------3-|2---0---2--(2)-- 
D: ----3---3-----2-|3---------------|--------0---0---|---------------- 
A: 3---0---0-------|0---3---3--(3)--|3---3-----------|3---3---3--(3)-- 
E: 1-------------3-|----------------|----------------|---------------- 
 
e: ----------------|----------------|----------------|---------------- 
B: ----------------|----------------|----------------|---------------- 
G: ----------------|----------------|------------0---|---------------- 
D: ----------------|----3---3---2---|3---2---0-------|3---2---3--(3)-- 
A: 0---3---3-----3-|3-------3--(3)--|0---0---1---1---|3---3----------- 
E: 1---1---1---0---|1---1-----------|----------------|--------1--(1)-- 
 
   +   +   +   +    +   +   +   +    +   +   +   +    +   +   +   +   
e: ----------------|----------------|----------------|---------------- 
B: ----------------|----------------|1---------------|---------------- 
G: ----------------|----2---2---0---|----0---0-------|---------------- 
D: ----3---3-----2-|3-------0--(0)--|----0---------2-|2---0----------- 
A: 3---0---0-------|0---3-----------|3-------3-------|0-------3--(3)-- 
E: 1-------------3-|----------------|--------------3-|----1---0--(0)-- 
 
e: ----------------|----------------|----------------|---------------- 
B: ----------------|----------------|----------------|---------------- 
G: ----------------|----------------|----------------|---------------- 
D: ----------------|0---3---3--(3)--|2---0---2---2---|---------------- 
A: 0---3---3-----3-|----3---2-------|0---2---3-----3-|3---2---3--(3)-- 
E: 1---1---1---0---|1-----------3---|----------------|1---3---0--(0)-- 
 
   +   +   +   +    +   +   +   +    +   +   +   +    +   +   +   +   
e: ----------------|----------------|----------------|---------------- 
B: 1---1---1-------|----------------|1---1---1-------|---------------- 
G: ----------------|3---2---2---0---|----------------|3---2---2---0--- 
D: ------------3---|----------------|------------3---|---------------- 
A: 3---3---3---3---|3---3---3--(3)--|3---3---3---3---|3---3---3--(3)-- 
E: ----------------|----------------|----------------|---------------- 
 
e: ----------------|----------------|----------------|---------------- 
B: ----------------|----------------|----------------|---------------- 
G: ----------------|0---------------|----------------|0--------------- 
D: ----------------|----3---3---2---|----------------|----3---3---2--- 
A: 3---3---3---3---|--------3--(3)--|3---3---3---3---|--------3--(3)-- 
E: ------------5---|0---1-----------|------------5---|0---1----------- 
 
   +   +   +   +    +   +   +   +    +   +   +   +    +   +   +   +   
e: ----------------|----------------|----------------|---------------- 
B: 3---3---3---1---|----------------|--------1-------|---------------- 
G: ----------------|3---2---3--(3)--|0---2-3---------|----0---2--(2)-- 
D: 0---0---0---0---|0---0---0--(0)--|--------------3-|3--------------- 
A: ----------------|----------------|3---3---3-----0-|0---3---3--(3)-- 
E: ----------------|----------------|----------------|---------------- 
 
e: ----------------|----------------|----------------|---------------- 
B: ----------------|----------------|----------------|---------------- 
G: 3---3---3---2---|0-------0--(0)--|----------------|---------------- 
D: ----------------|----4-----------|2---2---3-------|----2---3--(3)-- 
A: 1---1---1---1---|1---5-----------|1---1---0-----3-|3---3----------- 
E: ----------------|--------3--(3)--|------------1---|1-------1--(1)-- 
 
   +   +   +   +    +   +   +   +    +   +   +   +    +   +   +   +   
e: ----------------|----------------|----------------|---------------- 
B: 3-----3-3---1---|----------------|--------1-------|---------------- 
G: ----------------|3---2---3--(3)--|0---2-3---------|----0----------- 
D: 0---0---0-------|----------------|--------------3-|3-------3--(3)-- 
A: ------------3---|1---0---1--(1)--|3---3---3-----0-|0---1---0--(0)-- 
E: ----------------|----------------|----------------|---------------- 
 
e: ----------------|----------------|----------------|---------------- 
B: ----------------|----------------|----------------|---------------- 
G: 3---3---3---2---|0-------0--(0)--|----------------|---------------- 
D: ----------------|----4-----------|2---2---3-----3-|---------------- 
A: 1---1---1---0---|----------------|3---1---0-------|3---3---3--(3)-- 
E: ----------------|3---2---3---1---|------------1---|1---3---1--(1)-- 
		  

See also:

tabs Salvation Is Here - Hillsong United tabs 12-Stones - The Way I Feel (solo) tabs MercyMe - i can only imagine tabs Falling Up - Places tabs Flatt & Scruggs - Dueling Banjos tabs Brad Paisley - Mud on the tires/intro.
e-chords

Other versions:

tabs Eltjo Haselhoff - Hark The Herald Angels Sing tabs The Raveonettes - Hark! The Herald Angels Sing
auto scroll beats size up size down change color hide chords drawings
tab show chords e-chords YouTube Clip e-chords hide all tabs e-chords go to top tab

share