Hillsong

Hillsongs Hosanna

Hillsong

tabs Expert expert

by  DIEGOHP2007

save to print version add songbook text version e-mail correct tuner
chordsukulelecavacokeyboardtabbassdrumsharmonicaflute Guitar Pro
close

there isn't a video lesson for this song

chords

Hillsongs Hosanna

	  		INTRO - HOSANNA 
HILLSONGS 
SOLO - GUITARRA 
POR - DIEGO CARVALHO  
  

E--------------------------------- - |------------------------------------------------------------------------------------------ | 
B-------------9-----------------9 -|------------------------------------------------------------------------------------------ | 
G---------9-----------9---11-----|-----------8-----------------8------------9----------9--------------8----------------8-- | 
D----11---------11---------------|------9------------9---11-----------9-------------------------9-----------9---11------- | 
A-------------------------- ---- -- |-11-----------11---------------11------------11---------11----------11--------------- -| 
E--------------------- --- ----- -- |------------------------------------------------------------------------------------------ | 


  

E-----------------------------------|------------------------------------------------------------------------------9--9------12---| 
B-------------9-----------------9--|-------------------------------------------------------12 ----------------9---------9--------| 
G---------9-----------9---11---- --|-----------8-----------------8------------9-------------------------11----------------------| 
D----11---------11-------------- --|------9------------9---11-----------9-------------------------9---------------------------- | 
A-------------------------- ---- --- |-11-----------11---------------11------------11--------------------------------------------| 
E--------------------- --- ----- - -- |--------------------------------------------------------------------------------------------- | 

-after effects- passagem 
E--------------------------------7---------5---------------------------------------------------------------------------------------| 
B-----9-------9-------9------------7---------5-----------9------------------------------------------------------------------------| 
G---------9-------9------9---------------------------------------------------------------------------------------------------------| 
D-----------------------------------------------------------------------------------------------------------------------------------| 
A-----------------------------------------------------------------------------------------------------------------------------------| 
E-----------------------------------------------------------------------------------------------------------------------------------| 


Itapetininga -SP  
Igreja Presbiteriana de Vila Hungria 
		  

See also:

tabs 12-Stones - Stay tabs 12-Stones - Eric's song tabs Hillsong - One way tabs Caedmon's Call - April Showers tabs Hillsong - Hosanna Solo Guitarra tabs Caedmon's Call - Lead of Love
e-chords

Other versions:

tabs Hillsong - Hillsongs Hosanna
auto scroll beats size up size down change color hide chords drawings
tab show chords e-chords YouTube Clip e-chords hide all tabs e-chords go to top tab

share