Eltjo Haselhoff

Hark The Herald Angels Sing

Eltjo Haselhoff

tabs

by  LINEKERS

save to print version add songbook text version e-mail correct tuner
chordsukulelecavacokeyboardtabbassdrumsharmonicaflute Guitar Pro
close

there isn't a video lesson for this song

chords

Hark The Herald Angels Sing

	  		




e|-------0----0-------0-4----4-2-|---7-7----7---5----4-2--4-| 
B|-----0-----0---4---0--0---5--4-|--5--4------7-----5--4--5-| 
G|----2----------0---------------|---------4----------------| 
D|---0------0--------------------|--------------------------| 
A|--5------------0---------0-----|-----------------0---0----| 
E|-0----------------4---0--------|-4---4--5---------------0-| 

e|-------0--0-------0-4--4-2-|-7------------------| 
B|-----0----0--0-4--0-0------|-4-7--7----5-4-2--0-| 
G|----2------------------4---|-6-4--6--------1--0-| 
D|---0------0----------------|---------4---4------| 
A|--5---------------2-0------|------------------0-| 
E|-0---------------------6---|-4-6--7------0-2----| 

e|-7-7--7-0--5-4--4-2-|-7-7--7-0--5-4--4-2-| 
B|-0-0--0-0--7-5--5-4-|-0-0--0-0--7-5--5-4-| 
G|--------------------|--------------------| 
D|-7-7--7-4----0------|-7-7--7-4----0------| 
A|-----------4----0---|-----------4----0---| 
E|--------------------|--------------------| 

e|-9----9--9-7--5-4--5------|------4h5-7-0--0----4-| 
B|-5-------5------0--4--0---|-7----0---5----0-7--5-| 
G|----7------7--4---------4-|-6--6----------2-6----| 
D|----5-----------1--2------|-7-------------4-7----| 
A|--------------------------|-0-------------2-0----| 
E|-5-------5-4--2-----------|----------0---------0-| 

e|-9----9--9-7--5-4--5------|-----4h5--7-0--0-----------| 
B|-5-------5------0-----0---|-7---0----5----0?4h5-----5-| 
G|----7------7--4----4----4-|-6-6-----------2--0-----2--| 
D|----5-----------1--2------|-7-------------4--2----4---| 
A|--------------------------|-0-------------2--0---0----| 
E|-5-------5-4--2-----------|----------0----------0-----| 
		  

See also:

tabs Eltjo Haselhoff - Hark The Herald Angels Sing
e-chords

Other versions:

tabs Eltjo Haselhoff - Hark The Herald Angels Sing tabs The Raveonettes - Hark! The Herald Angels Sing
auto scroll beats size up size down change color hide chords drawings
tab show chords e-chords YouTube Clip e-chords hide all tabs e-chords go to top tab

share