Casting Crowns

Who Am I

Casting Crowns

tabs Beginner beginner

by  EAGLESWINGS14

save to print version add songbook text version e-mail correct tuner
chordsukulelecavacokeyboardtabbassdrumsharmonicaflute Guitar Pro
close
who-am-i-by-casting-crowns

there is a video lesson for this song

chords

Who Am I

Year: 2003 - Album: Casting Crowns

(Mark Hall)

	  		Who am I	 
By: Casting crowns 
Tabbed by: Ralph Lorenz 

 Standard tuning: EADGBE 

Intro: 

Just listen to the song to get the beat 

E--------------------------------------------------------------------| 
B--0---2------0-----2/4-----2----------------------------------------| 
G--------------------------------------------------------------------| 
D--------------------------------------------------------------------| 
A--2---4------2-----4/6-----4----------------------------------------| 
E--------------------------------------------------------------------| 

E--------------------------------------------------------------------| 
B--0---2------0-----2/4-----2----------------------------------------| 
G--------------------------------------------------------------------| 
D--------------------------------------------------------------------| 
A--2---4------2-----4/6-----4----------------------------------------| 
E--------------------------------------------------------------------| 

Verse: 

E--------------2-------------------------------------2----------------| 
B---------4------4--------------2---------------4------4--------------| 
G------------------4------------3---------------4--------4------------| 
D---------------------------------------------------------------------| 
A---------2-----------------------------------------------------------| 
E---------------------------------------------------------------------| 
   Who am I          that the lord of all the earth                                    

E----------------------------------------------------------------0----| 
B-----------2--------------4-----------------2--------------0---0--0--| 
G-----------3--------------4-----------------3-----------------1----1-| 
D---------------------------------------------------------------------| 
A-----------------------------------------------------------2---------| 
E---------------------------------------------------------------------| 
   Would care to know my name        would care to feel my hurt                                           

E--------------2-------------------------------------2----------------| 
B---------4------4--------------2-----------------4----4--------------| 
G------------------4------------3-----------------4------4------------| 
D---------------------------------------------------------------------| 
A---------2-----------------------------------------------------------| 
E---------------------------------------------------------------------| 
   Who am I          that the bright and morning star 


E----------------------------------------------------------------0----| 
B-----------2-----------------4----------2----------------0-----0--0--| 
G-----------3-----------------4----------3--------------------------1-| 
D-------------------------------------------------------------1-------| 
A---------------------------------------------------------2-----------| 
E---------------------------------------------------------------------| 
   Would choose to light the way for my ever wonderin? heart                                   

Refrain: 

E--------------------------------------------------------------------| 
B---------4-------------2------4------------------2------------------| 
G---------4-------------3------4------------------3------------------| 
D--------------------------------------------------------------------| 
A--------------------------------------------------------------------| 
E--------------------------------------------------------------------| 
       Not  because of  who I  am , but because of what you?ve done                                 
                                                                                                                  
E-------------------------------------0------------2-----2------------| 
B---------4-----------------2---------0------------2-----3------------| 
G---------4-----------------3---------1------------3-----3------------| 
D-------------------------------------2------------4-----3------------| 
A-------------------------------------2------------4-----2------------| 
E-------------------------------------0------------2-----2------------| 
      Not because of what  ive?d  done ,  but because of who you a??are               


Chorus: 

B        F#            G#m           F#              E 
I am a flower quickly fading, here today and gone tomorrow 
F#                     E      F#            B  
A wave tossed in the ocean, a vapor in the wind 
B          F#               G#m               F#                E 
Still You hear me when I'm calling, Lord, You catch me when I'm falling, 
            F#          E    F#         (intro) 
And you've told me who I am,     I am Yours.  




Verse II: 

E--------------2-------------------------------------2----------------| 
B---------4------4--------------2---------------4------4--------------| 
G------------------4------------3---------------4--------4------------| 
D---------------------------------------------------------------------| 
A---------2-----------------------------------------------------------| 
E---------------------------------------------------------------------| 
   Who am I          that the eyes that see my sin 

E----------------------------------------------------------------0----| 
B-----------2--------------4-----------------2--------------0---0--0--| 
G-----------3--------------4-----------------3-----------------1----1-| 
D---------------------------------------------------------------------| 
A-----------------------------------------------------------2---------| 
E---------------------------------------------------------------------| 
   Would come to look the way       for my ever wondrin? heart 

E--------------2----------------------------------------2-------------| 
B---------4------4--------------2--------------------4-----4----------| 
G------------------4------------3--------------------4------4---------| 
D---------------------------------------------------------------------| 
A---------2-----------------------------------------------------------| 
E---------------------------------------------------------------------| 
   Who am I          that the voice that calmed the sea 
E----------------------------------------------------------------0----| 
B-----------2-----------------4----------2----------------0-----0--0--| 
G-----------3-----------------4----------3--------------------------1-| 
D-------------------------------------------------------------1-------| 
A---------------------------------------------------------2-----------| 
E---------------------------------------------------------------------| 
   Would choose to light the way for my ever wonderin? heart                                   

Refrain: 

E--------------------------------------------------------------------| 
B---------4-------------2------4------------------2------------------| 
G---------4-------------3------4------------------3------------------| 
D--------------------------------------------------------------------| 
A--------------------------------------------------------------------| 
E--------------------------------------------------------------------| 
       Not  because of  who I  am , but because of what you?ve done                                 
                                                                                                                                 
E-------------------------------------0------------2-----2------------| 
B---------4-----------------2---------0------------2-----3------------| 
G---------4-----------------3---------1------------3-----3------------| 
D-------------------------------------2------------4-----3------------| 
A-------------------------------------2------------4-----2------------| 
E-------------------------------------0------------2-----2------------| 
      Not because of what  ive?d  done ,  but because of who you a??are 

(Repeat Chorus) 
		  

Full key step upFull key step up
Half key step upHalf key step up
Half key step downHalf key step down
Full key step downFull key step down
hide glossary

See also:

tabs Bloodgood - Out of the darkness tabs Chris Tomlin - Not To Us tabs FFH - one of these days tabs Hank Williams - I'm So Lonesome I Could Cry tabs Audio Adrenaline - Free Ride tabs Caedmon's Call - Lead of Love
e-chords

Other versions:

tabs New Found Glory - Who Am I tabs Casting Crowns - Who Am I tabs Snoop Dogg - Who Am I (What's My Name)
auto scroll beats size up size down change color hide chords drawings
tab show chords e-chords YouTube Clip e-chords hide all tabs e-chords go to top tab

share