Guns N' Roses

home > Guns N' Roses

Sweet Child O' Mine Tab

Guns N' Roses

Difficulty: BeginnerBeginner

by DooMad

tuner correct add songbook print version text version save to e-mail
chords

Sweet Child O' Mine

Year: 1987 - Album: Greatest Hits

	      D  repete 2x                 C  repete 2x  
  
e|--------------15----14-----||--------------15----14-----||  
b|----15---------------------||----15---------------------||  
g|-------14-12-----14----14-º||-------14-12-----14----14-º||  
D|-12-----------------------º||-14-----------------------º||  
A|---------------------------||---------------------------||  
E|---------------------------||---------------------------||  
  
    G  repete 2x                   D  repete 2x  
e|---------------15------14----||--------------15----14-----||  
b|-----15----------------------||----15---------------------||  
g|-12-----14-13------14-----14º||-------14-12-----14----14-º||  
D|----------------------------º||-12-----------------------º||  
A|-----------------------------||---------------------------||  
E|-----------------------------||---------------------------||  
    
  
Final da Intro  
e /-12--10-12--r14--r15--r14--r12--r10------------------  
b /---------------------------------------9/11r---------   
g /---------------------------------------8/10r---------  
D /-----------------------------------------------------  
A /-----------------------------------------------------  
E /-----------------------------------------------------  

   Solo    
   
   
 e:-17^-17-15-14-15p14-12~~-14-15-14p15-12-11-12---------------   
 b: -----------------------------------------------------------   
 g:------------------------------------------------------------   
 D:------------------------------------------------------------   
 A:------------------------------------------------------------   
 E:------------------------------------------------------------   
   
 e:------------------------------------------------------------   
 b:-15^------------------------------10-13-12-13-12-10---------   
 g:----16-14^-12-11-12p11-9~~~~11-12---------------------------   
 D:------------------------------------------------------------   
 A:------------------------------------------------------------   
 E:------------------------------------------------------------   
    
 e:-------------------------15^-15-----------------------------   
 b:-13^-13-12-12--12^-12-10------------------------------------   
 g:--------------------------------11^-11-9-9~~-11^-11-9-9-8^-8   
 D:------------------------------------------------------------   
 A:------------------------------------------------------------   
 E:------------------------------------------------------------   
   
 e:------------------------------------------------------------   
 b:------------------------------------------------------------   
 g:11--11^-11-9-----------9~~~~~11^-11-9-9-8-11-9--------------   
 D:-------------11-7-9-10--------------------------------------   
 A:------------------------------------------------------------   
 E:------------------------------------------------------------   
   



	  

sweet-child-o-mine-by-guns-n-roses Play

there is a video lesson for this song

view more
Full key step upFull key step up
Half key step upHalf key step up
Half key step downHalf key step down
Full key step downFull key step down
Search
auto scroll beats size up size down change color hide chords drawings
tab show chords e-chords YouTube Clip e-chords hide all tabs e-chords go to top tab