Exercise

Sweet Child O' Mine Fingerstyle Tab

Exercise

Difficulty: BeginnerBeginner

by Teusalves

tuner correct add songbook print version text version save to e-mail
chordsukulelecavacokeyboardtabbassdrumsharmonicsflute Guitar Pro
close
sweet-child-o-mine-fingerstyle-by-exercise

there is a video lesson for this song

view more
chords

Sweet Child O' Mine Fingerstyle

  		1 

|-------------------13-hn12-| 
|----------------------hn12-| 
|------hn7-----hn12---------| 
|---------hn7---------------| 
|---------------------------| 
|-hn12----------------------| 

2  

|-------------------13--hn12-| 
|-----------------------hn12-| 
|-----hn7------hn12----------| 
|---------hn7----------------| 
|-hn7------------------------| 
|----------------------------| 


3 

|---------------------13--hn12-| 
|-------------------------hn12-| 
|-hn12--hn7-----hn12------hn12-| 
|-hn12------hn7-----------hn12-| 
|------------------------------| 
|------------------------------| 

4 

|----------------------------------------| 
|----------10----9--------------10----9--| 
|---7~---0---------------7~---0----------| 
|------7------7-------------7------7-----| 
|----------------------------------------| 
|-0-------------------0------------------| 

|--------------------------------| 
|----------10--9-----------10--9-| 
|---7----0-----------7---0-------| 
|-----7----------------7---------| 
|-7----------------7-------------| 
|--------------------------------| 


|------------------------------------| 
|-----------10--9--------------10--9-| 
|---7----0--------------7----0-------| 
|-----7-------------------7----------| 
|------------------------------------| 
|-5-------------------5--------------| 


|-----------------------------------| 
|----------10--9--------------10--9-| 
|--6/7---0--------------7---0-------| 
|--6/7-7------------------7---------| 
|-----------------------------------| 
|-0-----------------0---------------| 


5  

|------------------------------| 
|------------------------------| 
|-2-----2--0-----0--2----------| 
|-4--4--4-----4--4------3/2--0-| 
|------------------------------| 
|-0--------------0-----0-------| 


6 

|------------------------------------------------| 
|------------------------------------------------| 
|-0-----0-----0-------0------0--0-----0--2-------| 
|-0-4-0-0-4-0-0-4-0---4--4---4--4-4---4-----5--4-| 
|-3-----------3------------5--------5-------7--5-| 
|---------------------5---------5-----------0----| 



8 
|--------------------------------------------------------| 
|--------------------------------------------------------| 
|-2-2/4--2p0-----0-2-------2--0--------------------------| 
|-2-2----0------------5-4--2--2-4--2p0---0--0-2--3/2~--0-| 
|-0-0-----------------7-5--0--0----3---3----3----------0-| 
|------0-5---5-5------0-0----------5--------5----0-----0-| 


9 
|-----------------------------------------------------------| 
|-----------------------------------------------------------| 
|-----0-------------0-------------0----------------0--------| 
|-5h7---7-5-4---5h7---7-5-4---5h7---7--5--2----5h7---7-5--2-| 
|---------7-5-----------7-5------------3--3------------3--3-| 
|---------0-------------0-----------------------------------| 


|----------------------------| 
|-------0----0--2-5/7-5------| 
|-----0----0----0----------0-| 
|-5h7------0--------------4--| 
|----------------------------| 
|----------4----4--------0---| 



10 
|-------------------------------| 
|-------------------------------| 
|-4-2------------2--------------| 
|-2---5----4h5-2---5--4/5-2~--1-| 
|---------------------3------2--| 
|-2------0-----------0----------| 


11 

|-0------------------t12-t12---------------h12-| 
|--0---------------------------------------h12-| 
|---0--------------------------------------h12-| 
|----2-------4/5--7----------7--10-10--12--h12-| 
|-----2---x--4/5--7----------7--10-10--12------| 
|------2--x--4/5--7----------7--10-10--12------| 


|--------------------------------t12-| 
|------------------------------------| 
|------------------------------------| 
|-2--5-5/7-7--7/10--10-10--hn12------| 
|-2--5-5/7-7--7/10--10-10--hn12------| 
|-2--5-5/7-7--7/10--10-10--hn12------| 


12 
|--------------------------------------------------| 
|-------0-----0---------0-----0----------0-----0---| 
|------0-----0---------0-----0----------0-----0----| 
|---4h5---4h5---4---4h5---4h5---4----4h5---4h5---5-| 
|--------------------------------------------------| 
|-2---------------5----------------7---------------| 

|-----------------------| 
|-----------------------| 
|-----------------------| 
|-----------------------| 
|-10-10-10---12-12-hn12-| 
|-10-10-10---12-12-hn12-| 

|--------------------------------------------------| 
|-------0-----0---------0-----0----------0-----0---| 
|------0-----0---------0-----0----------0-----0----| 
|---4h5---4h5---4---4h5---4h5---4----4h5---4h5---5-| 
|--------------------------------------------------| 
|-2---------------5----------------7---------------| 


|---------------------------| 
|---------------------------| 
|---------------------------| 
|---------------------------| 
|-10-10-10---hn12-hn12-hn12-| 
|-10-10-10---hn12-hn12-hn12-| 

13 
|-----------------------------------------------------------| 
|----7----------------7---------7---7-----------------------| 
|----7-7--------x-----7-7-------7-7-7---x-------------------| 
|----7---7h9-7--x-----7---------7---7---x-------------------| 
|-7--7----------x-----------------------x--10-10--hn12-hn12-| 
|---------------x--0--5---5--0--7---7-7-x--10-10--hn12-hn12-| 



|-----------------------------------------------------| 
|-7-------------7------7------------------------------| 
|-7-7-----------7-7----7-7--------7-------------------| 
|-7---7h9-7-----7------7---7h9-7--7-------------------| 
|-7-------------------------------7--10-10--hn12-hn12-| 
|------------0--5---5--7---7------7--10-10--hn12-hn12-| 




	  

Search Paypal
auto scroll beats size up size down change color hide chords drawings
tab show chords e-chords YouTube Clip e-chords hide all tabs e-chords go to top tab

share with facebook