Guns N' Roses

home > Guns N' Roses

Sweet Child O' Mine (ver. 3) Tab

Guns N' Roses

Difficulty: nolevelnolevel

by Maicon%5FAm%5F

tuner correct add songbook print version text version save to e-mail
chordsukulelecavacokeyboardtabbassdrumsharmonicsflute Guitar Pro
chords

Sweet Child O' Mine (ver. 3)

  		1-Parte: 
 
E|-------------15----14------- 
B|----15---------------------- 
G|-------14-12----14----14---- 
D|-12------------------------- 
A|---------------------------- 
E|---------------------------- 
 
2-Parte: 
 
E|-------------15----14------- 
B|----15---------------------- 
G|-------14-12----14----14---- 
D|-14------------------------- 
A|---------------------------- 
E|---------------------------- 
 
3-Parte: 
 
E|-------------15----14------- 
B|----15---------------------- 
G|-12----14-12----14----14---- 
D|---------------------------- 
A|---------------------------- 
E|----------------------------
	  

Search Paypal
auto scroll beats size up size down change color hide chords drawings
tab show chords e-chords YouTube Clip e-chords hide all tabs e-chords go to top tab