Guns N' Roses

Sweet Child O' Mine (ver. 4) Tab

Guns N' Roses

Difficulty: nolevelnolevel

by Jonh+Petrucci

tuner correct add songbook print version text version save to e-mail
chordsukulelecavacokeyboardtabbassdrumsharmonicsflute Guitar Pro
close

there isn't a video lesson for this song

request
chords

Sweet Child O' Mine (ver. 4)

  		Gtr I (Eb Ab Db Gb Bb Eb) - 'Slash - Lead / Rhythm w/dist' 
Gtr II (Eb Ab Db Gb Bb Eb) - 'Izzy Stradlin - Rhythm w/overdrive' 
Gtr III (Eb Ab Db Gb Bb Eb) - 'Izzy Stradlin - Rhythm steel string acoustic' 
Gtr IV (Eb Ab Db Gb Bb Eb) - 'Slash - Rhythm / Lead clean (Gtr I clean)' 
Gtr V (Eb Ab Db Gb Bb Eb) - 'Slash - Lead w/dist' 
 
Intro 
  Q=122 
 4/4 
  Gtr I 
   E  E  E  E  E  E  E  E    E  E  E  E  E  E  E  E 
|-------------15----14----|-------------15----14----| 
|----15-------------------|----15-------------------| 
|-------14-12----14----14-|-------14-12----14----14-| 
|-12----------------------|-12----------------------| 
|-------------------------|-------------------------| 
|-------------------------|-------------------------| 
|-Riff A 
 
   E  E  E  E  E  E  E  E    E  E  E  E  E  E  E  E 
|-------------15----14----|-------------15----14----| 
|----15-------------------|----15-------------------| 
|-------14-12----14----14-|-------14-12----14----14-| 
|-14----------------------|-14----------------------| 
|-------------------------|-------------------------| 
|-------------------------|-------------------------| 
 
 
   E  E  E  E  E  E  E  E    E  E  E  E  E  E  E  E 
|-------------15----14----|-------------15----14----| 
|----15-------------------|----15-------------------| 
|-12----14-12----14----14-|-12----14-12----14----14-| 
|-------------------------|-------------------------| 
|-------------------------|-------------------------| 
|-------------------------|-------------------------| 
 
 
 
   E  E  E  E  E  E  E  E    E  E  E  E  E  E  E  E 
|-------------15----14----|-------------15----14-----| 
|----15-------------------|----15--------------------| 
|-------14-12----14----14-|-------14-12----14----14--| 
|-12----------------------|-12-----------------------| 
|-------------------------|--------------------------| 
|-------------------------|--------------------------| 
|                                         end Riff A-| 
|Gtr II 
|              < 
|  h           e  e  e  e    e  e  e  e  e  e  e  e 
|-------------------------|--------------------------| 
|--------------3--3--3--3-|--3--3--3--3--3--3--3--3--| 
|--------------2--2--2--2-|--2--2--2--2--2--2--2--2--| 
|--------------0--0--0--0-|--0--0--0--0--0--0--0--0--| 
|-------------------------|--------------------------| 
|-------------------------|--------------------------| 
 
 
w/riff a 
  gtr iii 
  d 
   w                          +w 
   |                           | 
   /                           / 
 
  gtr ii 
   q.        e +q.        e    e  e  e  e +e   e  e  e 
|-^2---------2-(2)--------2-|--3p=2--2--3-(3)--2-------| 
|-^3---------3-(3)--------3-|--3--------3-(3)-----3----| 
|-^2---------2-(2)--------2-|--2--------2-(2)-----2--2-| 
|-^0---------0-(0)--------0-|--0---------------------0-| 
|---------------------------|--------------------------| 
|---------------------------|--------------------------| 
|-rhy fig 1 
 
  cadd9 
   w                         +w 
   |                          | 
   /                          / 
 
   e  q     e +h              e  e  e  e +q.        e 
|-^0--------0-(0)----------|---------------------------| 
|-^1--3-----1-(1)----------|--3--1-----1-(1)-----------| 
|-^0--------0-(0)----------|--0-----0---------------0--| 
|-^2--------2-(2)----------|--2------------------------| 
|-^3--------3-(3)----------|--3------------------------| 
|--------------------------|---------------------------| 
 
 
  g 
   w                         +w 
   |                          | 
   /                          / 
 
                              > 
   Q     E  E +H             +W 
|--------------------------|--------------------------| 
|-^3--------0-(0)----------|-(0)----------------------| 
|-^0-----0--0-(0)----------|-(0)----------------------| 
|-^0--------0-(0)----------|-(0)----------------------| 
|-^2--------2-(2)----------|-(2)----------------------| 
|-^3--------3-(3)----------|-(3)----------------------| 
 
 
  D 
   W                        +W 
   |                         | 
   /                         / 
 
         < 
         pm------------| 
   q     e  e  e  e  e  e    e  e  e  e +q.        e 
|-------------------------|--3--2--0--2-(2)--------0--| 
|--3-----3--3--3--3--3--3-|--3--3--3--3-(3)--------3--| 
|--2-----2--2--2--2--2--2-|--2--2--2--2-(2)--------2--| 
|--0-----0--0--0--0--0--0-|--0--0--0--0-(0)--------0--| 
|-------------------------|---------------------------| 
|-------------------------|---------------------------| 
                                        end rhy fig 1-| 
 
w/riff a (1st 6 bars) + rhy fig 1 
  gtr iii 
   q.        e  q.        e    q.       e  e   e  q 
|--2---------2--2---------2-|--2--------2--3---2--0----| 
|--3---------3--3---------3-|--3-----------------------| 
|--2---------2--2---------2-|--2-----------------------| 
|--0---------0--0---------0-|--0-----------------------| 
|---------------------------|--------------------------| 
|---------------------------|--------------------------| 
 
 
   q.        e  q.        e    q.        e  e   e  q 
|--0---------0--0---------0-|--0---------0--3---2--0-----| 
|--1---------1--1---------1-|--1-------------------------| 
|--0---------0--0---------0-|--0-------------------------| 
|--2---------2--2---------2-|--2-------------------------| 
|--3---------3--3---------3-|--3-------------------------| 
|---------------------------|----------------------------| 
 
 
   q.        e  q.        e    q.        e  e  e  q 
|---------------------------|---------------3--2--0----| 
|--3---------3--3---------3-|--3---------3-------------| 
|--0---------0--0---------0-|--0-----------------------| 
|--0---------0--0---------0-|--0-----------------------| 
|--2---------2--2---------2-|--2-----------------------| 
|--3---------3--3---------3-|--3-----------------------| 
 
 
   e   e  e  e  e   e  e  e    e   e  e  e  e   e  e  e 
|-12-----------12-----14----|-15-----14----12------------|| 
|--------15-----------------|---------------------15-----|| 
|-----14----14-----14----14-|-----14----14-----14----14--|| 
|---------------------------|----------------------------|| 
|---------------------------|----------------------------|| 
|---------------------------|----------------------------|| 
|                            
| 
|  q.        e  q.        e    q.        e  q      q 
|--2---------2--2---------2-|--2---------2--3------2-----|| 
|--3---------3--3---------3-|--3---------3--3------3-----|| 
|--2---------2--2---------2-|--2---------2--2------2-----|| 
|--0---------0--0---------0-|--0---------0--0------0-----|| 
|---------------------------|----------------------------|| 
|---------------------------|----------------------------|| 
 
 
   verse 1 + 2 
w/rhy fig 1 
    gtr iv 
      w                 +w 
||--^10--------------|-(10)----------------| 
||o-^10--------------|-(10)----------------| 
||--^11--------------|-(11)----------------| 
||--^12--------------|-(12)----------------| 
||o------------------|---------------------| 
||-------------------|---------------------| 
 
 
 
    w                e q   e +q   +e   e 
|-^-8-------------|-10p8-----------------| 
|-^-8-------------|--------8-(8)--(8)\---| 
|-^-9-------------|----------------------| 
|-^10-------------|----------------------| 
|-----------------|----------------------| 
|-----------------|----------------------| 
 
 
 
   w                e  e e e +e  e q    h..            e   e q.     +h 
|--3-------------|--3------3-(3)------|-2--------------2-|-3p2------(2)------| 
|--3-------------|-----3---------3----|-3--------------3-|-3-----------------| 
|--0-------------|-------0---------0--|-2--------------2-|-2-----------------| 
|--5-------------|--------------------|-0--------------0-|-0-----------------| 
|----------------|--------------------|------------------|-------------------| 
|----------------|--------------------|------------------|-------------------| 
                                                           w 
 
w/rhy fig 1 (1st 6 bars) 
   e  e e e +e  e e e   e e e e  e  e e e 
|---------0-(0)-----2-|-------2--3--2-0---| 
|-----3---------3-----|-3---------------3-| 
|-------2---------2---|---2---------------| 
|--0------------------|-----0-------------| 
|---------------------|-------------------| 
|---------------------|-------------------| 
 
 
   e e e e +e  e e e   +e  e e e +e  e e e 
|------------------0-|-(0)------------------| 
|--------3-(3)-------|-----3---3-(3)--------| 
|----0---------0-----|---------------0---0--| 
|------2---------2---|----------------------| 
|--3-----------------|-------3---------3----| 
|--------------------|----------------------| 
 
 
   e e e e  e  q  e    e  e e e +e  e e e 
|-------------------|--0------------0-----| 
|------3-------3----|-----3---3-(3)---3---| 
|--2h4---2h=4-----0-|-------0-----------0-| 
|-------------------|---------------------| 
|-------------------|---------------------| 
|-------------------|---------------------| 
 
 
  e e e e e q   e   +e  e q    h 
|---------------3-|-(3)--------2-----|| 
|---3-----3-----3-|-(3)-3------3-----|| 
|-----2-----2---2-|-(2)---2----2-----|| 
|-0-----0---------|------------0-----|| 
|-----------------|------------------|| 
|-----------------|------------------|| 
| 
|     pm--------| 
| q   e e e e e e    e  e e e +h 
|-----------------|--3--2-0-2-(2)----|| 
|-3---3-3-3-3-3-3-|--3--3-3-3-(3)----|| 
|-2---2-2-2-2-2-2-|--2--2-2-2-(2)----|| 
|-0---0-0-0-0-0-0-|--0--0-0-0-(0)----|| 
|-----------------|------------------|| 
|-----------------|------------------|| 
 
 
 Chorus 
  $ 
  gtr ii 
|-rhy fig 2 
  a5                   b5   c5 
   q     e  e +q     e  e    q     e  e +h 
   |        |  |     |  |    |        |  | 
   /        /  /     /  /    /        /  / 
 
  gtr i 
   e  e  e  e  e  e  e  e    e  e  e  e  e  e  e  e 
|-------------------------|-------------12----10----| 
|-14-14-------15----14----|-13-13-------------------| 
|-------14-------14----14-|-------12-10----12----12-| 
|----------14-------------|-------------------------| 
|-------------------------|-------------------------| 
|-------------------------|-------------------------| 
 
 
 
   d                             dsus4 d dsu2 d         end rhy fig 2-| 
   q       e  e  q     e  e        e   e   e  e +h 
   |          |  |        |        |   |   |  |  | 
   /          /  /        /        /   /   /  /  / 
 
   e    e  e  e  e  e  e  e        e   e   e  e  e  e  e  e 
|---------------15----14--------|---------------15----14--------------| 
|------15-----------------------|-----15------------------------------| 
|---------14-12----14----14-----|---------14-12----14----14-----------| 
|-12----------------------------|-12----------------------------------| 
|-------------------------------|-------------------------------------| 
|-------------------------------|-------------------------------------| 
| 
|play 3rd time only 
|  h..                    e       +e  +e   e  e  e  e  e  s      +s 
|-------------------------------|-------------------------------------| 
|--7----------------------7pb8==|=(7)r(7)-----------------------------| 
|--7----------------------------|----------7--------------------------| 
|--7----------------------------|-------------7--5s=4--0--------------| 
|--5----------------------------|-------------------------3b3.5==(3)r-| 
|-------------------------------|-------------------------------------| 
 
 
  a5                   b5   c5 
   q     e  e +q     e  e    q     e  e +h 
   |        |  |     |  |    |        |  | 
   /        /  /     /  /    /        /  / 
 
   e  e  e  e  e  e  e  e    e  e  e  e  e  e  e  e 
|-------------------------|-------------12----10----| 
|-14-14-------15----14----|-13-13-------------------| 
|-------14-------14----14-|-------12-10----12----12-| 
|----------14-------------|-------------------------| 
|-------------------------|-------------------------| 
|-------------------------|-------------------------| 
 
 
              to coda 
  d 
    w                    q.   e q  q 
    |                    |    | |  | 
    /                    /    / /  / 
 
    e   q.    +h        +h.        e  e 
|--------------------|-------------------|| 
|------15----(15)----|-(15)----------10--|| 
|-/14-(14)---(14)----|-(14)--------9-----|| 
|--------------------|-------------------|| 
|--------------------|-------------------|| 
|--------------------|-------------------|| 
 
w/rhy fig 1 
   q.   e +q.    e   q.    e +q.      e 
|------------------|--------------------| 
|--8----7-(7)---10-|-8-----7-(7)-----10-| 
|------------------|--------------------| 
|------------------|--------------------| 
|------------------|--------------------| 
|------------------|--------------------| 
 
 
   q.    e +q.    e   q.     e +q.    e 
|-------------------|---------------------| 
|--8-------------10-|-8--------------10s==| 
|--------9-(9)------|--------9-(9)--------| 
|-------------------|---------------------| 
|-------------------|---------------------| 
|-------------------|---------------------| 
 
 
  1. 
   h      +e   e      +e  e    e      +e    e  e       +q    +e  e 
|---------------------------|--------------10-10pb12==(10)r=(10)-------| 
|--8------(8)-10pb12r(10)-8-|-10b12==(10)r-----------------------------| 
|---------------------------|------------------------------------9b11==| 
|---------------------------|------------------------------------------| 
|---------------------------|------------------------------------------| 
|---------------------------|------------------------------------------| 
 
 
  +w                 +w 
|------------------|----------------------|| 
|------------------|---------------------o|| 
|-(9)--------------|-(9)r-----------------|| 
|------------------|----------------------|| 
|------------------|---------------------o|| 
|------------------|----------------------|| 
 
 
  2. 
   h..             e    h     e    +e  e e 
|--------------------|------------------------| 
|--8--------------10s|==8-----7pb8r(7)---7b8==| 
|--------------------|-----------------7------| 
|--------------------|------------------------| 
|--------------------|------------------------| 
|--------------------|------------------------| 
 
 
  +h       +e   e e +e    +h.            e  e 
|--------------10-------|----------------------| 
|-(7)------(7)----7r(7)-|-(7)------------x-10--| 
|-----------------------|----------------------| 
|-----------------------|----------------------| 
|-----------------------|----------------------| 
|-----------------------|----------------------| 
 
 
w/rhy fig 1 (1st 6 bars) 
   q.   e +q.    e   q   e  e      +e    q    e 
|------------------|--------------------10---10s| 
|--8----7-(7)---10-|-8---7s10b12==(10)r---------| 
|------------------|----------------------------| 
|------------------|----------------------------| 
|------------------|----------------------------| 
|------------------|----------------------------| 
 
 
   q.      e  +q.    e    q    e  e  +e  q  e 
|--8-----/12-(12)---12-|-12s==10-10-(10)s8--7pb8r==| 
|----------------------|---------------------------| 
|----------------------|---------------------------| 
|----------------------|---------------------------| 
|----------------------|---------------------------| 
|----------------------|---------------------------| 
 
 
         ~~~~~~ 
  +q   e e +q    s      +s  e    q      e  e      +q    +e   e 
|-(7)-------------------------|--------10-10b12==(10)r=(10)--------| 
|------8--------10pb12r(10)p8-|-10b12-----------------------17b19==| 
|--------7-(7)----------------|------------------------------------| 
|-----------------------------|------------------------------------| 
|-----------------------------|------------------------------------| 
|-----------------------------|------------------------------------| 
 
 
                                              d.s. al coda 
   +e    q.      +h           +w 
|-------17------(17)-------|-(17)---------------|| 
|-(17)-(17)-----(17)-------|-(17)r--------------|| 
|--------------------------|--------------------|| 
|--------------------------|--------------------|| 
|--------------------------|--------------------|| 
|--------------------------|--------------------|| 
| 
|           pm-----------| 
|   q       e e   e  e e e     e   e e e +h 
|--------------------------|---3---2-0-2-(2)----|| 
|---3-------3-3---3--3-3-3-|---3---3-3-3-(3)----|| 
|---2-------2-2---2--2-2-2-|---2---2-2-2-(2)----|| 
|---0-------0-0---0--0-0-0-|---0---0-0-0-(0)----|| 
|--------------------------|--------------------|| 
|--------------------------|--------------------|| 
 
 
  & 
  d5 
  gtr ii 
  |-3-| |-3-| 
  q q q q q q 
  | | | | | | 
  / / / / / /  
|---------------| 
 
rhy fig 2 x1.5 
 
 
  d                            d#5 
  e e e e e e e e   e e e e q  q 
  | | | | | | | |   | | | | |  | 
  / / / / / / / /   / / / / /  / 
|-----------------|---------------|| 
 
 
 guitar solo 
   ~~~~~~~~~~~~~~~~~~                           ~~~~ 
   h            +q     +e   e    q    s  s  e  +q.      e 
|-17b19========(17)r==(17)-15-|-14h==15p14-------------15-| 
|-----------------------------|------------17-(17)--------| 
|-----------------------------|---------------------------| 
|-----------------------------|---------------------------| 
|-----------------------------|---------------------------| 
|-----------------------------|---------------------------| 
| 
| gtr ii 
|  e     e e e   e  e   e   e    e e  e     e   e  e e  e 
|------------0----------------|-------------3-------------| 
|----------0-----0------------|-------1---------1---------| 
|--------0----------0-------0-|----0---------------0----0-| 
|-----------------------2-----|--2-------------------2----| 
|-----------------------------|---------------------------| 
|--0--------------------------|---------------------------| 
|-rhy fig 3 
 
                     |----3-----| 
   e.   s  s  s  e  +q     q    q      e      +e   e  e      +e   e  e  e 
|-14h==15p14--------------12---14---|--------------------------------------| 
|------------17-16-(16)-------------|-15pb17r(15)-12-----------------------| 
|-----------------------------------|----------------14pb16r(14)-12-11h12--| 
|-----------------------------------|--------------------------------------| 
|-----------------------------------|--------------------------------------| 
|-----------------------------------|--------------------------------------| 
| 
|  e e     e     e   e  e    e    e    e       e   e  e       e   e  e  e 
|----------------2------------------|-----------------0--------------------| 
|----------0---------0--------------|-------------------------1------------| 
|----2------------------2---------2-|--------------2--------------2--------| 
|--1-------------------------1------|----------2---------------------------| 
|-----------------------------------|--0-----------------------------------| 
|-----------------------------------|--------------------------------3--2--| 
                                                             end rhy fig 3-| 
 
w/rhy fig 3 x2 
   ~~~                                                    ~~~~~~~ 
               |---3----|  |---3---|            |--3---| 
   q.      e  +e   e    e  e  e    e    +q     +s   s  s  e  +e   q. 
|------------------------------------|-------------------------------------| 
|----------------------------13---12-|-(12)---(12)h13p12s10-(10)-13b15-----| 
|-----------------11---12-14---------|-------------------------------------| 
|-14------14-(14)--------------------|-------------------------------------| 
|------------------------------------|-------------------------------------| 
|------------------------------------|-------------------------------------| 
 
 
               ~~~~ 
   q    e  e  +q.      e       +q     e  e      +e   +e   e s    +s 
|---------------------------|-----------15b17==(15)r(15)\---------------| 
|-13---12-12-(12)-----12b13r|=(12)--------------------------7b8==(7)r===| 
|---------------------------|--------14---------------------------------| 
|---------------------------|-------------------------------------------| 
|---------------------------|-------------------------------------------| 
|---------------------------|-------------------------------------------| 
 
 
          ~~~~~~                     ~~~~~~ 
  +q    e e +q.   s    +s    +q    e e +e  q. 
|--------------------------|-----------------------| 
|-(7)-------------7b8==(7)r|=(7)-------------------| 
|-------9-9-(9)------------|-------9-9-(9)-8b9-----| 
|--------------------------|-----------------------| 
|--------------------------|-----------------------| 
|--------------------------|-----------------------| 
 
 
  ~~ 
  q.     e  +q.      e       +q    e e     +e   q   e 
|-------------------------|----------------------------| 
|-------------------------|----------------------------| 
|-8s====11-(11)-----11b12r|=(11)---9-------------------| 
|-------------------------|----------9b10==(9)r-7---9--| 
|-------------------------|----------------------------| 
|-------------------------|----------------------------| 
 
 
w/rhy fig 3 (1st 3 bars) 
  w                     w                      w 
  ~~~                   ~~~~~~~~~~~~~ 
  h..             s s   q.     e +e  q.        q.       e  +e  q. 
|---------------------|----------------------|----------------------------| 
|-----------------7h8p|=7--------------------|----------------------------| 
|-9-------------------|--------9-(9)-8b9-----|-8------/11-(11)-9b11-------| 
|---------------------|----------------------|----------------------------| 
|---------------------|----------------------|----------------------------| 
|---------------------|----------------------|----------------------------| 
| 
| gtr v 
| w                     w                      h            q       e s s 
|---------------------|----------------------|----------------------------| 
|---------------------|----------------------|----------------------------| 
|---------------------|----------------------|------------------------8-9-| 
|---------------------|----------------------|----------------------------| 
|---------------------|----------------------|----------------------------| 
|---------------------|----------------------|----------------------------| 
 
 
  a5 
 gtr ii 
  e       e    e      e    e   e     e     e 
  |       |    |      |    |   |     |     | 
  /       /    /      /    /   /     /     / 
 
  ~~~~ 
  w 
|-------------------------------------------------| 
|-------------------------------------------------| 
|-9-----------------------------------------------| 
|-------------------------------------------------| 
|-------------------------------------------------| 
|-------------------------------------------------| 
| 
| s   +s  s s  s    s s s  s s s  s  s  s  s  s 
|-------------------7-8p7-11p7-8-11-12s14-11-12---| 
|-7b8r(7)---7-10b12-------------------------------| 
|---------9---------------------------------------| 
|-------------------------------------------------| 
|-------------------------------------------------| 
|-------------------------------------------------| 
| 
| e       e    e      e    e   e     e     e 
|---------------------0---------------------------| 
|--------------------------1----------------------| 
|--------------2---------------2-----------2------| 
|---------2--------------------------2------------| 
|-0-----------------------------------------------| 
|-------------------------------------------------| 
 
 
  gtr v 
                                 |--3--| 
   s  s  s  s  s  s  s  s  s  s  s  s  s  s  s  e 
|-14s15-12-14-15p14-12----14p11-12h14p12----17-------|| 
|----------------------15----------------15----15b17-|| 
|----------------------------------------------------|| 
|----------------------------------------------------|| 
|----------------------------------------------------|| 
|----------------------------------------------------|| 
| 
| gtr iii 
|  e     e     e     e     e     e        e     e 
|--------------------0-------------------------------|| 
|--------------------------1-------------------------|| 
|--------------2-----------------2-------------------|| 
|--------2-------------------------------------------|| 
|--0-------------------------------------------------|| 
|-----------------------------------------3-----2----|| 
| 
| gtr ii 
|  pm------------------------------------------| 
|  e     e     e     e     e     e        e     e 
|----------------------------------------------------|| 
|----------------------------------------------------|| 
|--2-----2-----2-----2-----2-------------------------|| 
|--2-----2-----2-----2-----2-------------------------|| 
|--0-----0-----0-----0-----0-----3--------2-----0----|| 
|----------------------------------------------------|| 
 
 
                                                   ~~~~~ 
   q      q       q      s     +s   s  s    q      h            s     +s   s  s 
|----------------------------------------|---------------------------------------| 
|-15b17--15b17---15b17--15b17r(15)p12----|-15b17--15b17--------15b17r(15)p12-----| 
|-------------------------------------14-|-----------------------------------14--| 
|----------------------------------------|---------------------------------------| 
|----------------------------------------|---------------------------------------| 
|----------------------------------------|---------------------------------------| 
| 
|  q.          e +q      e          e       q.          e +q    q 
|----------------------------------------|--3-----------3-(3)---3----------------| 
|----------------------------------------|--3-----------3-(3)---3----------------| 
|--0-----------0-(0)---------------------|--0-----------0-(0)---0----------------| 
|--2-----------2-(2)---------------------|--0-----------0-(0)---0----------------| 
|--2-----------2-(2)---------------------|---------------------------------------| 
|--0-----------0-(0)-----0----------2----|--3-----------3-(3)---3----------------| 
|-rhy fig 4 
 
          ~~~~~ 
   q      h            q         q      e  e      +q     s       +s   e 
|-----------------------------|--------15------------------------------------| 
|-17b19--17b19--------17b19---|-17b19-----17b19==(17)r--17b19r==(17)p15------| 
|---------------------17b18---|----------------------------------------------| 
|-----------------------------|----------------------------------------------| 
|-----------------------------|----------------------------------------------| 
|-----------------------------|----------------------------------------------| 
| 
|  q.          e +q    e    e    q      q          q     e.             +s 
|-----------------------------|----------------------------------------------| 
|-----------------------------|----------------------------------------------| 
|--2-----------2-(2)---2----4-|--5------5----------7-------------------------| 
|--2-----------2-(2)---2----4-|--5------5----------7-----5b5.5==========(5)r-| 
|--0-----------0-(0)---0----2-|--3------3----------5-----5b5.5==========(5)r-| 
|-----------------------------|--------------------------3b3.5==========(3)r-| 
                                                               end rhy fig 4-| 
 
w/rhy fig 4 x3 
      ~~~ 
   a  q.    e      +e    e  e  e 
|-----------------------12-------| 
|-15h17----15b17==(15)r----15-12-| 
|--------------------------------| 
|--------------------------------| 
|--------------------------------| 
|--------------------------------| 
 
 
                 ~~~      ~~~ 
   e     +s   s  e.    s  q    e  e       +e    e  e  e  s     +s   s  s  +s   s  s     +s 
|--------------------------------------|---------------------------15------------------------| 
|--------------------------------------|---------------------------15------------15----(15)--| 
|-14b15r(14)p12-14----12-14---12-14b16=|=(14)r-12-14-12-14b16=(14)----14r(14)-12-14b16=(14)r-| 
|--------------------------------------|-----------------------------------------------------| 
|--------------------------------------|-----------------------------------------------------| 
|--------------------------------------|-----------------------------------------------------| 
 
 
   s  s      +s    s  s      +s    s  s  s     +s   s  s  s       s s  s 
|-15--------------15--------------15----------------------------------------| 
|-15--------------15-----------------15-------------------------------------| 
|----14b16==(14)r----14b16==(14)r-------14b16r(14)p12----14p=====12-x--x----| 
|-----------------------------------------------------14------------x--x----| 
|---------------------------------------------------------------------------| 
|---------------------------------------------------------------------------| 
 
 
                        ~~~~~~~                                        ~~~~~~~ 
   e.       +s    s  s  e  +e  s s  s  s  s  s    e.       +s    s  s  e  +e  s s  s  s  s  s 
|----------------------------------------------|----------------------------------------------| 
|----------------------------------------------|----------------------------------------------| 
|-12b12.5==(12)r-------------------12h14p12----|-12b12.5==(12)r-------------------12h14p12----| 
|----------------14p12h14-(14)-x-x----------14-|----------------14p12h14-(14)-x-x----------14-| 
|----------------------------------------------|----------------------------------------------| 
|----------------------------------------------|----------------------------------------------| 
 
 
   s   s  s  s  s  s  s  s  s   s  s  s  s  s  e 
|------------------------------------------------| 
|--------------------------12--12-------15-15p12-| 
|-12--12-------14-14p12-14--------14p12----------| 
|--------14p12-----------------------------------| 
|------------------------------------------------| 
|------------------------------------------------| 
 
 
                              |----3-----| 
   s  s  s  s  s  s  e  e  e  s       s  s  s  s 
|-12-12-------15-15p12-15-14---------12h15p12------| 
|-------15p12----------------15---------------15---| 
|--------------------------------------------------| 
|--------------------------------------------------| 
|--------------------------------------------------| 
|--------------------------------------------------| 
 
                        |--3--|        |--3--|        |--3--| 
   s     s  s  s  e     s  s  s  e     s  s  s  e     s  s  s 
|-------12-------------12-------------12-------------12-------| 
|-15b17----15p12----------15p12-15b17----15p12----------15p12-| 
|----------------14b16-------------------------14b16----------| 
|-------------------------------------------------------------| 
|-------------------------------------------------------------| 
|-------------------------------------------------------------| 
 
         |--3--|        |--3--|        |--3--|  |--------6--------| 
   e     s  s  s  e     s  s  s  e     s  s  s  s     s  s  s  s  s 
|-------12-------------12-------------12----------------12-------15b17==| 
|-15b17----15p12----------15p12-15b17----15p12-------12----15-12--------| 
|----------------14b16-------------------------14b16--------------------| 
|-----------------------------------------------------------------------| 
|-----------------------------------------------------------------------| 
|-----------------------------------------------------------------------| 
 
 
                       ~~~ 
                           |--3--| 
   q.       +e   +s    e.  s  s  s  s  s 
|-15b18====(15)-(15)r-15--12h15p12----12-| 
|----------------------------------15----| 
|----------------------------------------| 
|----------------------------------------| 
|----------------------------------------| 
|----------------------------------------| 
 
 
                  |----3-----|                         |----3-----|  |----3-----| 
   s     s  s  s  s     +s   s  e      +s    s  e     +s       s  s  s  s       s 
|-------12------------------------------------------------------------------------| 
|-15b17----15p12----------------------------15------------------------------------| 
|----------------14b16r(14)p12-14b16==(14)r----14b16r(14)p====12----14p12---------| 
|----------------------------------------------------------------14------------14-| 
|---------------------------------------------------------------------------------| 
|---------------------------------------------------------------------------------| 
 
 
  gtr ii 
|-rhy fig 5 
  e5                g5 
   q  e e +h        q  e e +q  +q 
   |    |  |        |    |  |   | 
   /    /  /        /    /  /   / 
 
  gtr v 
   h       q   q    w 
|-----------------|----------------| 
|-----------------|----------------| 
|-12s======2/-----|----------------| 
|-----------------|----------------| 
|-----------------|----------------| 
|-----------------|----------------| 
 
                                   end rhy fig 5-| 
  a5                      c5          d5  g5(type 2) 
  q     e   e +q  +q    e e  e      e e e q 
  |         |  |   |      |  |      | | | | 
  /         /  /   /      /  x      / / x / 
 
                             pm-| 
  e s s s s e  h        q    s   s  e q   e s s 
|---x-x-----x---------|---------------------x-x-| 
|---x-x-----x---------|---------------------x-x-| 
|---------------------|-------------------------| 
|-------x-x-----------|-----<4>-<4>-------------| 
|-------x-x-----------|-------------------------| 
|---------------------|-------------------------| 
 
w/Rhy Fig 5 x2 
    ~~                           PM 
  a Q.    E  H      H       E E  E  E   W                H       Q   E S S 
|-----------------|-----------x-----x-|----------------|-------------x-------| 
|---------7-------|-----------x-----x-|----------------|-------------x-------| 
|-7h9-------------|-----------x-<7>-x-|----------------|---------------x-x---| 
|-----------------|-------------------|----------------|---------------x-x---| 
|-----------------|-------------------|----------------|---------------------| 
|-----------------|-------------------|----------------|---------------------| 
 
 
 
  S S E Q    Q  E S S   S S S S S S E  H        H       Q   E e 
|---------------------|-----------------------|-----------------| 
|---------------------|-----------------------|-----------------| 
|-2p0-------------x-x-|-----------------------|---------------7-| 
|-----------------x-x-|-7p5-------------------|-----------------| 
|---------------------|-----7p5---------------|-----------------| 
|---------------------|---------7p5S3---------|-----------------| 
 
 
 
  |----6----| |----6----| |----6----| |----6----| 
  S S S S S S S S S S S S S S S S S S S S S S S S 
|-------------------------------------------------| 
|-------------------------------------------------| 
|-7h9p7h9p7h9-7h9p7h9p7h9-7h9p7h9p7h9-7h9p7h9p7h9-| 
|-------------------------------------------------| 
|-------------------------------------------------| 
|-------------------------------------------------| 
 
 
  E5                                    G5 
   E  E              E      E E E E E   E E E E E E E E 
   |  |              |      | | | | |   | | | | | | | | 
   /  /              /      / / / / /   / / / / / / / / 
 
   E.    +S         +Q        H         W 
|-------------------------------------|------------------| 
|-12----(12)b12.5==(12)b14\-----------|------------------| 
|-12----(12)b12.5==(12)r\-------------|------------------| 
|-------------------------------------|------------------| 
|-------------------------------------|------------------| 
|-------------------------------------|------------------| 
 
 
  A5 
   E       E   E  E       E   E  E E 
   |       |   |  |       |   |  | | 
   /       /   /  /       /   /  / / 
 
                              ~~~ 
   E      +E   E  E      +E   Q. 
|------------------------------------| 
|-15pb17r(15)-12---------------------| 
|----------------14pb16r(14)-12------| 
|------------------------------------| 
|------------------------------------| 
|------------------------------------| 
 
                              |-Rhy Fig 6 
      C5     D5     G5(type 2)  E5               E    F# 
    E  E E E   E  E  Q            Q.   E  +Q     E    E 
    |  | | |   |  |  |            |    |   |     |    | 
    x  / / /   /  x  /            /    /   /     o    o 
 
                                           |---3----| 
    E  e Q     E  E  E  E        +H       +Q   Q    q 
|----------------------22b24==|=(22)-----(22)-22---22---| 
|-----17---------17-17--------|-------------------------| 
|-/18--------/18--------------|-------------------------| 
|-----------------------------|-------------------------| 
|-----------------------------|-------------------------| 
|-----------------------------|-------------------------| 
 
 
  G5                      A5                                     B5 
   Q.       E  +Q    Q     Q.             E +Q          E        E 
   |        |   |    |     |              |  |          |        | 
   /        /   /    /     /              /  /          /        / 
 
                ~~~~~ 
   |--3---|                |-----3-----|     |------3------| 
   Q   Q  Q    +H          q   Q      +Q     Q      +Q     Q 
|-22--22-22---(22)r-----|-----17pb19r(17)---17pb19r(17)---17pb19---| 
|-----------------------|-17---------------------------------------| 
|-----------------------|------------------------------------------| 
|-----------------------|------------------------------------------| 
|-----------------------|------------------------------------------| 
|-----------------------|------------------------------------------| 
 
                           end Rhy Fig 6-| 
  C5                D5           G5(type 2) 
   E    E   Q         Q           Q 
   |    |   |         |           | 
   /    /   /         /           / 
 
                                     ~~ 
   Q       +Q        +E   +S   S  E  E 
|-17b19r==(17)b19===(17)r(17)p15--------| 
|--------------------------------17-17--| 
|---------------------------------------| 
|---------------------------------------| 
|---------------------------------------| 
|---------------------------------------| 
 
 
w/Rhy Fig 6 
                     |---3--|    |-----5-----|  |------5------|  |-----5-----|  |-----5-----| 
   Q    Q     +Q     e  e   e    S  S  S  S  S  S  S  S    S  S  S  S  S  S  S  S  S  S  S  S 
|-------------------12--------|-------------12-------12------------12----------12----------12-| 
|-17\--15b17=(15)r-----15p=12-|-15p12h14p12----15p12------15p12-------15p12-------15p12-------| 
|-----------------------------|---------------------------------14----------14----------14----| 
|-----------------------------|---------------------------------------------------------------| 
|-----------------------------|---------------------------------------------------------------| 
|-----------------------------|---------------------------------------------------------------| 
 
 
 
   |-----5-----|  |------5------|  |-----5-----|  |--3--| 
   S  S  S  S  S  S  S  S    S  S  S  S  S  S  S  S  S  S  E 
|----------12----------12------------12----------12---------------| 
|-15p12-------15p12---------15p12-------15p12-------15p12---------| 
|-------14----------14------------14----------14----------14b16r==| 
|-----------------------------------------------------------------| 
|-----------------------------------------------------------------| 
|-----------------------------------------------------------------| 
 
 
 
   +S   S  E      +S   +S       +S   +S       +S   E  S  S  S     E 
|-------------------------------------------------------------------| 
|---------15b17==(15)r(15)b17==(15)r(15)b17==(15)r---15p12----------| 
|-(14)p12--------------------------------------------------14b16-14-| 
|-------------------------------------------------------------------| 
|-------------------------------------------------------------------| 
|-------------------------------------------------------------------| 
 
 
w/Rhy Fig 6 (1st 3 bars) 
                                             ~~~ 
                             |----3-----|                        |--3--| 
   +H.              +S    S  S     +S   S    E  S  S     +E   E  E  E  E  E  E 
|-----------------------------------------|------------------------------------| 
|------------------------15---------------|------------------------------------| 
|-(14)b16==========(14)r----14b16r(14)-12-|-14----14b16r(14)p12-14-14-12-------| 
|-----------------------------------------|------------------------------14-12-| 
|-----------------------------------------|------------------------------------| 
|-----------------------------------------|------------------------------------| 
 
 
 
   E      +E    E  E      +E    E  E  E 
|--------------12--------------12-------| 
|-15b16==(15)r----15b16==(15)r----15p12-| 
|---------------------------------------| 
|---------------------------------------| 
|---------------------------------------| 
|---------------------------------------| 
 
 
  E5VII D5 B5VBb5   A5VG5(tyE5 2)                        E  F# 
   |---3----|  |---3----| 
   Q     Q  Q  Q     Q  Q    Q.           E       +Q      E E 
   |     |  |  |     |  |    |            |        |      | | 
   /     /  /  /     /  /    /            /        /      o o 
 
                                                          ~~ 
   |---3----|  |---3----| 
   Q     Q  Q  Q     Q  Q    Q       +E   E       +E   E  Q 
|-------------------------|-----------------------------------| 
|-15b17-15-12-------------|-----------------------------------| 
|-------------14b16-14-12-|-14pb15r=(14)-14pb15==(14)-14-14---| 
|-------------------------|-----------------------------------| 
|-------------------------|-----------------------------------| 
|-------------------------|-----------------------------------| 
 
 
  G5(type 2)              A5           C5     D5 
   Q.       E +Q    Q       W          H      H 
   |        |  |    |       |          |      | 
   /        /  /    /       /          /      / 
 
   ~~~~~~~~~                ~~~~~~~~~~~~~~    ~~ 
   |--3---| 
   Q   Q  Q    Q.     E     W          Q.   E Q.    E 
|-----------------------|------------|-----------------| 
|-----------------------|------------|-----------------| 
|-14--14-14---14r\------|------------|-----------------| 
|---------------------x-|-/14s=======|=9----9s5--------| 
|-----------------------|------------|-------------10s=| 
|-----------------------|------------|-----------------| 
 
 
  E5 
  W           +W                  +H     H              W 
  |            |                   | 
  /            /                   / 
 
                                                                  > 
                                         \0.5/ 
  H    H       H    Q.     +E      H    +Q      +Q      E  E E E +H 
|-----------|-------------------|--------------------|------------------*| 
|-----------|-------------------|--------------------|---------9-(9)----*| 
|-----------|-------------------|--------------------|-------9----------*| 
|-----------|-------------------|--------------------|-----9------------*| 
|-7s===2----|-------------------|--------------------|--7---------------*| 
|-----------|--5s===3b4====(3)rp|==0----(0)-----(0)--|-(0)--------------*| 
                                                       +W
	  

Search Paypal
auto scroll beats size up size down change color hide chords drawings
tab show chords e-chords YouTube Clip e-chords hide all tabs e-chords go to top tab

share with facebook