Guns N' Roses

home > Guns N' Roses

Knockin' On Heaven's Door Tab

Guns N' Roses

Difficulty: ExpertExpert

by h4ck3r

tuner correct add songbook print version text version save to e-mail
chordsukulelecavacokeyboardtabbassdrumsharmonicsflute Guitar Pro
chords

Knockin' On Heaven's Door

Year: 1991 - Album: Greatest Hits

(Bob Dylan)

	  Intro 
e|-3--3-------------2-0----------------------0------------------------- 
B|-3----3---3-----3-----3---3----------1-----------1------------------- 
G|-0------0-----2---------2----0-----0---0-------0---0-0-----0--------- 
D|-0----------0----------------0^2---------2---2-------0^2------------- 
A|-2-------------------------------3-----------------------3----------- 
E|-3------------------------------------------------------------------- 

e|-3--3-------------2-0------------------------------------------------ 
B|-3----3---3-----3-----3---3-------1-------1-----1---1-1-1-0---------- 
G|-0------0-----2---------2-------0---0---------0---0-0-0-0-0---------- 
D|-0----------0-----------------2-------2-----2-------2-2-2-0---------- 
A|-2--------------------------3-----------3-----------3-3-3-0---------- 
E|-3------------------------------------------------------------------- 

Distortion 

e|--------------------------------------------------------------------- 
B|--------------------------------------------------------------------- 
G|------------7--7--(7)^5--5--x-x-x-x-----------7---7--x-x--5---------- 
D|-5--5-5-x---7--7--(7)^5--5--x-x-x-x--5---x-x--7---7--x-x--5---------- 
A|-5--5-5-x-5-5--5--(5)^3--3--x-x-x-x--5---x-x--5---5--x-x--3---------- 
E|-3--3-3-x----------------------------3---x-x------------------------- 

1ST VERSE - Clean 
e|-3--------2----2-0-------------------0------------------------------- 
B|-3--------3-----------0--1---0^1-----------1------------------------- 
G|-0-3----3-2--2------2----2-2-----2-------2---2---0---0--------------- 
D|-0-0--0---0--0-----------2---------2---2-------2---2----------------- 
A|-2-0--0------------------0------------------------------------------- 
E|-3------------------------------------------------------------------- 

e|----3-------------2-0------------------------------------------------ 
B|------3---3-----3-----3---0--1----1-------------1-------------------- 
G|-0------0-----2---------2----0--0---0---------0---0------------------ 
D|-0----------0----------------2--------2---2---------2-0-------------- 
A|-----------------------------3----------3---3------------------------ 
E|-3------------------------------------------------------------------- 

e|----3-----------2-0--------------------3^-----0-0-------------------- 
B|-3----3---3-3-------3---0--1---0^1--------1-------1-0---------------- 
G|-0------0---2---------2----2-2-----2--------2------------------------ 
D|-0----------0-0------------2---------2------------------------------- 
A|---------------------------0----------------------------------------- 
E|-3------------------------------------------------------------------- 

e|---3-----------2-0--------------------------------------------------- 
B|-3---3---3-3-3-----3---0--1---1-------1-------1---------------------- 
G|-0-----0---2---------2----0-0-------0-------0-----0---0-------------- 
D|-0---------0--------------2-------2-------2-----2---0---------------- 
A|--------------------------3-----3-------3---------------------------- 
E|-3------------------------------------------------------------------- 

CHORUS 
Distortion 

e|--------------------------------------------------------------------- 
B|--------------------------------------------------------------------- 
G|--------7-7-7--7--7--7--7---5~~~~-5--------5-5----------------------- 
D|-5~~~~--7-7-7--7--7--7--7---5~~~~-5--------5-5----------------------- 
A|-5~~~~--5-5-5--5--5--5--5---3~~~~-3--3-3-3-3-3----------------------- 
E|-3~~~~--------------------------------------------------------------- 

e|--------------------------------------------------------------------- 
B|--------------------------------------------------------------------- 
G|--------x-x-7-7-7--5--5-5-----5-5-5-5-----5-5------------------------ 
D|-5~~~~--x-x-7-7-7--5--5-5-----5-5-5-5-----5-5------------------------ 
A|-5~~~~--x-x-5-5-5--3--3-3-3-3-3-3-3-3-3-3-3-3------------------------ 
E|-3~~~~--------------------------------------------------------------- 

e|--------------------------------------------------------------------- 
B|--------------------------------------------------------------------- 
G|-------7-7-7--7-7--5--5-5------5-5-5-----5-5-5--------7-----5-------- 
D|-5--5--7-7-7--7-7--5--5-5------5-5-5-----5-5-5--5-----7-----5-------- 
A|-5--5--5-5-5--5-5--3--3-3--3-3-3-3-3-3-3-3-3-3--5-----5-----3-------- 
E|-3--3-------------------------------------------3-------------------- 

1ST SOLO 

Rhythm 
e|-3---2---0-----3---2---0-----3---2---0-----3---2---0----------------- 
B|-3---3---1-----3---3---1-----3---3---1-----3---3---1----------------- 
G|-0---2---0-----0---2---0-----0---2---0-----0---2---0----------------- 
D|-0---0---2-----0---0---2-----0---0---2-----0---0---2----------------- 
A|-2-------3-----2-------3-----2-------3-----2-------3----------------- 
E|-3-------------3-------------3-------------3------------------------- 

Solo 
e|----------------------------------------------------------------------- 
B|-------------------15-----------------------------17-15--13^12-13bfull- 
G|--12-14bfull-12-14----14b1/2-12-12~~~~~~~~-----12---------------------- 
D|-------------------------------------------/14------------------------- 
A|----------------------------------------------------------------------- 
E|----------------------------------------------------------------------- 

e|----------------------------15-------------15-17b-17b 15~~~~~~ 20b--- 
B|-13^12-13^12----------12-13----13--12--/17--------------------------- 
G|--------------------------------------------------------------------- 
D|-------------14~~~~-------------------------------------------------- 
A|--------------------------------------------------------------------- 
E|--------------------------------------------------------------------- 

e|-20^19-20--19-20b--10------20-20------------------------------------- 
B|----------------------(18)-------17~~~~~~----15b-------12-12--15~~~~- 
G|--------------------------------------------------14b---------------- 
D|--------------------------------------------------------------------- 
A|--------------------------------------------------------------------- 
E|--------------------------------------------------------------------- 

2ND VERSE 

e|----3-------2----2-0--------------------0---------------------------- 
B|-3----3---3-3--------3---0--1---0^1-----------1---1-0---------------- 
G|-0------0---2--2-------2----2-2-----2-------2---2-----2-0------------ 
D|-0----------0---------------2---------2------------------------------ 
A|----------------------------0-------------0-------------------------- 
E|-2------------------------------------------------------------------- 

e|----3------------2-0------------------------------------------------- 
B|-3----3---3-3--3-----3---0--1----1----------------------------------- 
G|-0------0---2----------2----0--0---0---0---0---0---0---0------------- 
D|-0----------0---------------2------------2---2---2---2--------------- 
A|----------------------------3--------3------------------------------- 
E|-3------------------------------------------------------------------- 

e|----3------------3-2-0------------------0----------------------------- 
B|-3----3---3-3--3-------3-0--1---0^1-----------1---1-0----------------- 
G|-0------0---2---------------2-2-----2-------2---2-----2-0------------- 
D|-0----------0---------------2---------2---2--------------------------- 
A|----------------------------0----------------------------------------- 
E|-3-------------------------------------------------------------------- 

e|----3------------2-0-------------------------------------------------- 
B|-3----3---3-3--------3---0--1----1-------1-------1-------0------------ 
G|-0------0---2--2-------2----0--0-------0-------0-------0-------------- 
D|-0----------0---------------2--------2-------2-------2---------------- 
A|----------------------------3------3-------3-------3------------------ 
E|-3-------------------------------------------------------------------- 

CHORUS 


e|--------------------------------------------------------------------- 
B|--------------------------------------------------------------------- 
G|--------7-7-7--7--7--7--7---5~~~~-5--------5-5----------------------- 
D|-5~~~~--7-7-7--7--7--7--7---5~~~~-5--------5-5----------------------- 
A|-5~~~~--5-5-5--5--5--5--5---3~~~~-3--3-3-3-3-3----------------------- 
E|-3~~~~--------------------------------------------------------------- 

e|--------------------------------------------------------------------- 
B|--------------------------------------------------------------------- 
G|--------x-x-7-7-7--5--5-5-----5-5-5-5-----5-5------------------------ 
D|-5~~~~--x-x-7-7-7--5--5-5-----5-5-5-5-----5-5------------------------ 
A|-5~~~~--x-x-5-5-5--3--3-3-3-3-3-3-3-3-3-3-3-3------------------------ 
E|-3~~~~--------------------------------------------------------------- 

e|--------------------------------------------------------------------- 
B|--------------------------------------------------------------------- 
G|-------7-7-7--7-7--5--5-5------5-5-5-----5-5-5--------7-----5-------- 
D|-5--5--7-7-7--7-7--5--5-5------5-5-5-----5-5-5--5-----7-----5-------- 
A|-5--5--5-5-5--5-5--3--3-3--3-3-3-3-3-3-3-3-3-3--5-----5-----3-------- 
E|-3--3-------------------------------------------3-------------------- 

2ND SOLO 

Rhythm 
e|--------------------------------------------------------------------- 
B|--------------------------------------------------------------------- 
G|-----------7---7---5--5-x-5-5-5---5-5-x-x---------------------------- 
D|-5---5-x-x-7---7---5--5-x-5-5-5---5-5-x-x---------------------------- 
A|-5---5-x-x-5---5---3--3-x-3-3-3---3-3-x-x---------------------------- 
E|-3---3-x-x----------------------------------------------------------- 

e|--------------------------------------------------------------------- 
B|-----------------------------------------------------------7-7-7-7-7- 
G|---------7-7-7--7-7-7-7-7--5-5-5-5-5-5-5-5-x-x-5-5---------7-7-7-7-7- 
D|-5-5-5-x-7-7-7--7-7-7-7-7--5-5-5-5-5-5-5-5-x-x-5-5--5-5-5--7-7-7-7-7- 
A|-5-5-5-x-5-5-5--5-5-5-5-5--3-3-3-3-3-3-3-3-x-x-3-3--5-5-5--5-5-5-5-5- 
E|-3-3-3-x--------------------------------------------3-3-3------------ 

e|--------------------------------------------------------------------- 
B|-5-5-5-5-x-5-5---5-x---------7-7-7---5------5------------------------ 
G|-5-5-5-5-x-5-5---5-x---------7-7-7---5----5---5-5-5-5-5-5------------ 
D|-5-5-5-5-x-5-5---5-x--5--5-5-7-7-7---5--5---------5-5-5-5------------ 
A|-3-3-3-3-x-3-3---3-x--5--5-5-5-5-5---3------------3-3-3-3------------ 
E|----------------------3--3-3----------------------------------------- 

Solo 

e|----------12-15-14b1/2--14--14b1/2-12--14^12----------15-----15------ 
B|-13----13------------------------------------15b--15b----15b----15b-- 
G|----12--------------------------------------------------------------- 
D|--------------------------------------------------------------------- 
A|--------------------------------------------------------------------- 
E|--------------------------------------------------------------------- 

e|-------------15----------------15----15--15--------------15----17b--- 
B|-13-15----------15---------15-----15-15b-15b----------15----15------- 
G|---------14b-------14b--12-14--------14--14---12---16---------------- 
D|--------------------------------------------------------------------- 
A|--------------------------------------------------------------------- 
E|--------------------------------------------------------------------- 

e|-17b1/2--15-17-15-20-19-20b-20-19-20-20b--20-19-20-22b-22b----------- 
B|--------------------------------------------------------------------- 
G|--------------------------------------------------------------------- 
D|--------------------------------------------------------------------- 
A|--------------------------------------------------------------------- 
E|--------------------------------------------------------------------- 

e|-22---------22------------------------------------15----------------- 
B|----20-22b-----22b--20-22022b-20-22-20-19b1/2~~~~----19--19b1/2--17-- 
G|--------------------------------------------------------------------- 
D|--------------------------------------------------------------------- 
A|--------------------------------------------------------------------- 
E|--------------------------------------------------------------------- 

e|----------15----15--------------------------------------------------- 
B|-19^17-17----17----17^15----15--------------------------------------- 
G|-------------------------17----16b1/2--16b1/2--12-11~~--~11b1/2--9~~- 
D|--------------------------------------------------------------------- 
A|--------------------------------------------------------------------- 
E|--------------------------------------------------------------------- 

e|--------------------------------------------------------------------- 
B|--------------------8~~~~~~~~---------------------------------------- 
G|--\5--5^4------------------------------------------------------------ 
D|------------5~~~~~~~~~~~~~~~~---------------------------------------- 
A|--------------------------------------------------------------------- 
E|--------------------------------------------------------------------- 

Outro 

e|--------------------------------------------------------------------- 
B|--------------------------------------------------------------------- 
G|--5--5-5-5-5-----5--5--------7-7--7--7--7---5---5---5-5-----5-5-5---- 
D|--5--5-5-5-5-----5--5--5--5--7-7--7--7--7---5---5---5-5-----5-5-5---- 
A|--3--3-3-3-3-3-3-3--3--5--5--5-5--5--5--5---3---3---3-3-3-3-3-3-3---- 
E|-----------------------3--3------------------------------------------ 

e|--------------------------------------------------------------------- 
B|--------------------------------------------------------------------- 
G|-------7---7-7---5---5--5-5-5-5-----5-5-5-----------7-7-7-7-7--5-5-5- 
D|-5-5---7---7-7---5---5--5-5-5-5-----5-5-5--5-5-5-5--7-7-7-7-7--5-5-5- 
A|-5-5---5---5-5---3---3--3-3-3-3-3-3-3-3-3--5-5-5-5--5-5-5-5-5--3-3-3- 
E|-3-3---------------------------------------3-3-3-3------------------- 

e|--------------------------------------------------------------------- 
B|--------------------------------------------------------------------- 
G|-5-5-------5-5-5-------------7---7-7---5--5--5--5---5---5--5--5--5--- 
D|-5-5-------5-5-5---5---5-5---7---7-7---5--5--5--5---5---5--5--5--5--- 
A|-3-3-3-3-3-3-3-3---5---5-5---5---5-5---3--3--3--3---3---3--3--3--3--- 
E|-------------------3---3-3------------------------------------------- 

e|------------------------15--3-3-------------------------------------- 
B|----------------------------5-3-------------------------------------- 
G|-------------16~~~~~~~~---------------------------------------------- 
D|--5~~~~~~~~~~~~~~~~~~~~---------------------------------------------- 
A|--5~~~~~~~~~~~~~~~~~~~~---------------------------------------------- 
E|--3~~~~~~~~~~~~~~~~~~~~---------------------------------------------- 



	  

there isn't a video lesson for this song

request
Search
auto scroll beats size up size down change color hide chords drawings
tab show chords e-chords YouTube Clip e-chords hide all tabs e-chords go to top tab