Guns N' Roses

Knockin' On Heaven's Door Bass Tab

Guns N' Roses

Difficulty: BeginnerBeginner

by Pantufa

tuner correct add songbook print version text version save to e-mail
chordsukuleleukulelecavacokeyboardtabbassdrumsharmonicsflute Guitar Pro
close

there isn't a video lesson for this song

request
chords

Knockin' On Heaven's Door

Year: 1991 - Album: Greatest Hits

(Bob Dylan)

  		   
G|-----------------------|  
D|----0-----------------|           2X  
A|-------0-0-0-0-0-0-|  
E|-3---------------------|  
  

G|--------------------------| 1  
D|-----0--2-2-2-2-2-2--|  
A|--------------------------|  
E|--3----------------------|  
  
G|---------------------------| 2  
D|-------0-------------------|  
A|----------3--3-3-3-3-3-|  
E|---3-----------------------|  


G|-------------------------------|  
D|-------0-----------------------|  
A|-----------3--3--3--3-3-3--|    4X  
E|---3---------------------------|  
  



	  

Search Paypal
auto scroll beats size up size down change color hide chords drawings
tab show chords e-chords YouTube Clip e-chords hide all tabs e-chords go to top tab

share with facebook