Rage Against The Machine

home > Rage Against The M...

Bombtrack Tab

Rage Against The Machine

Difficulty: ExpertExpert

by Guirocknaveia

tuner correct add songbook print version text version save to e-mail
chordsukulelecavacokeyboardtabbassdrummharmonicsflute Guitar Pro
chords

Bombtrack

Year: 1992 - Album: Rage Against the Machine

(Zack de la Rocha/ Tom Morello/ Tim Commerford/ Brad Wilk)

  		
Intro: 

e|-------------------------------| 
B|-------------------------------| 
G|-------------------------------| 
D|-----------------------------5-| 
A|---7-5---5---------7-5---5-7---| 
E|-0-----7---7-5-3-0-----7-------| (2x) 

e|-----------------------------------| 
B|-----------------------------------| 
G|-----------------------------------| 
D|-----------------------------------| 
A|---7-5---5---------7-5---5---------| 
E|-0-----7---7-5-3-0-----7---7-3-2-0-| 

e|---------------------------------------------------------------------| 
B|---------------------------------------------------------------------| 
G|---------------------------------------------------------------------| 
D|-----------------------------5h7p5h7---------------------------------| 
A|---7-5---5---------7-5---5-7-----------7-5--5--------7-5---5---------| 
E|-0-----7---7-5-3-0-----7-------------0----7--7-5-3-0-----7---7-3-2-0-| 

Chorus: 

e|-------------------------------------| 
B|-------------------------------------| 
G|-------------------------------------| 
D|-----4---------4-2-----4-------6-5-4-| 
A|-------------------------------4-3-2-| 
E|-0-2---0-2-0-2-----0-2---0-2-0-4-3-2-| (3x) 

e|---------------| 
B|---------------| 
G|---------------| 
D|-----4-------6-| 
A|-------------4-| 
E|-0-2---0-2-0-4-| 

Verse: 

e|----------------------------------------| 
B|----------------------------------------| 
G|----------------------------------------| 
D|----------------------------4-2---------| 
A|--------------------------------4-3-2-0-| 
E|--2-2-0-2-2-2-2-5-2-2-0-2-0-------------| (3x) 

e|----------------------------| 
B|----------------------------| 
G|----------------------------| 
D|----------------------------| 
A|----------------------------| 
E|-2-2-0-2-2-2-2-5-2-2-0-2-2--| 

pré-solo: 

e|---------------------x-x-x-x-------------------------------| 
B|---------------------x-x-x-x-------------------------------| 
G|---------------------x-x-x-x-------------------------------| 
D|---------------------x-x-x-x-------------------------------| 
A|---------------------x-x-x-x-----------------4-0-3-0-2-0---| 
E|-2-0-2-0-5-2-0-2-0-2-x-x-x-x-2-0-2-5-2-0-2-0---------------| 

Solo; 

e|----------------------------------------------------------------| 
B|--------------------------------14-17b19-(19)-(19)-(19)-(19)r17-| 
G|-x-14-x-16-x-14-x-16-x-14-x-16----------------------------------| 
D|-x-14-x-16-x-14-x-16-x-14-x-16----------------------------------| 
A|----------------------------------------------------------------| 
E|----------------------------------------------------------------| 

e|---------------------14-16-17-16-17-16b17r16---| 
B|-----------------------------------------------| 
G|-x-14-x-16-x-14-x-16---------------------------| 
D|-x-14-x-16-x-14-x-16---------------------------| 
A|-----------------------------------------------| 
E|-----------------------------------------------| 

Chorus: 

e|-------------------------------------| 
B|-------------------------------------| 
G|-------------------------------------| 
D|-----4---------4-2-----4-------6-5-4-| 
A|-------------------------------4-3-2-| 
E|-0-2---0-2-0-2-----0-2---0-2-0-4-3-2-| (3x) 

e|---------------------------------| 
B|--17----17----17----17----17-----| 
G|--16b18-16b18-16b18-16b18-16b18--| 
D|---------------------------------| 
A|---------------------------------| 
E|---------------------------------| 

e|-----------| 
B|-----------| 
G|14-14-14---|(6x) 
D|---------16| 
A|-----------| 
E|-----------| 

	  

Search Paypal
auto scroll beats size up size down change color hide chords drawings
tab show chords e-chords YouTube Clip e-chords hide all tabs e-chords go to top tab