The Strokes

home > The Strokes

Reptilia Tab

The Strokes

Difficulty: ExpertExpert

tuner correct add songbook print version text version save to e-mail
chordsukulelecavacokeyboardtabbassdrummharmonicsflute Guitar Pro
chords

Reptilia

  		 
CIFRAS/CHORDS: 
 
Bm: 234422 
E : 001220 
 
Guitarra 1/ Guitar 1: 
Bm E 
 
RIFF: 
 
Guitarra 2/Guitar 2: 
e|---------------------------------------------------------------| 
B|---------------------------------------------------------------| 
G|-7-7---7---------7-7---7-----------------4---7-----------4---7-|   
6|---------9---7-----------9---7---6-6---6---------6-6---6-------|   
A|---------------------------------------------------------------|  
E|---------------------------------------------------------------| 
 
PARADA/BREAK: 
 
Guitarra 1/Guitar 1: 
e|-10-10--109-09--0910-10--10/12-12--12/10-10--10/12-12--125-05--05/10-10-|  
B|-12-12--1210-10--1012-12--12/14-14--14/12-12--12/14-14--147-07--07/12-12-|  
G|-----------------------------------------------------------------------------|  2x 
D|-----------------------------------------------------------------------------|  / 
A|-----------------------------------------------------------------------------| / 
E|-----------------------------------------------------------------------------|/ 
 
REFRÃO/CHORUS: 
 
Guitarra 2/Guitar 2: 
e|----10----------09----------10----------12----------10----------12----------05-------10----| 
B|-12----1210-10----10/12-12----12/14-14----1412-12----12/14-14----147-07----07/12----12-|  
G|-------------------------------------------------------------------------------------------|  4x 
D|-------------------------------------------------------------------------------------------|  / 
A|-------------------------------------------------------------------------------------------| / 
E|-------------------------------------------------------------------------------------------|/ 
 
SOLO: 
 
Guitarra 2/Guitar 2: 
E|--4-----------------------|--4-----------------------|--4-----------------------|--4---------------------| 
B|----7-5-7-5---5-----------|----7-5-7-5---5-----------|----7-5-7-5---5-----------|----7-5-7-5---5---------| 
G|------------7---7-6-7-6-4-|------------7---7-6-7-6-4-|------------7---7-6-7-6-4-|------------7---7-6-4-6-|  
D|--------------------------|--------------------------|--------------------------|------------------------|  
A|--------------------------|--------------------------|--------------------------|------------------------|            
E|--------------------------|--------------------------|--------------------------|------------------------|       
 
E|4h7-7-4h7h5--7/10-7-4h7h5--9/12^-7-4h7h5--9/12^-7-4h7h5| 
B|-------------------------------------------------------| 
G|-------------------------------------------------------| 
D|-------------------------------------------------------| 
A|-------------------------------------------------------| 
E|-------------------------------------------------------| 
 
E|--4-----------------------|--4-------------| 
B|----7-5-7-5---5-----------|----7-5-7-5-----|  
G|------------7---7-6-7-6-4-|------------7-4-|   
D|--------------------------|----------------|  
A|--------------------------|----------------|          
E|--------------------------|----------------|     
 
 
_______________________________________________________ 
Contribuição: Nilton do Prado Ribeiro([email protected]) 

	  

Full key step upFull key step up
Half key step upHalf key step up
Half key step downHalf key step down
Full key step downFull key step down
Search Paypal
auto scroll beats size up size down change color hide chords drawings
tab show chords e-chords YouTube Clip e-chords hide all tabs e-chords go to top tab