The Strokes

home > The Strokes

Reptilia Bass Tab

The Strokes

Difficulty: BeginnerBeginner

by rogerio%5Fw

tuner correct add songbook print version text version save to e-mail
chordsukulelecavacokeyboardtabbassdrummharmonicsflute Guitar Pro
chords

Reptilia

  		Por:Rogerio W. Lisboa 
 
 
G|---------------------------------| 
D|-9-9-9-9-9-9-9-9-9-9-9-9-9-9-9-9-| 
A|---------------------------------| 
E|---------------------------------| 
 
 
G|-----------------------------------------| 
D|-----------------------------------------| 
A|-2-2-2-2-2-2-2-2-2-2-7-7-7-7-7-7-7-7-7-7-| 
E|-----------------------------------------| 
 
 
G|-----------------------------------------| 
D|-----------------------------------------| 
A|---------------------7-7-7-7-7-7-7-7-7-7-| 
E|-7-7-7-7-7-7-7-7-7-7---------------------| 
 
 
G|-------------------------------------------------------------------------------------| 
D|-------------------------------------------------------------------------------------| 
A|-----------------10-10---10-12-12---12-10-10---10-12-12---12-17-17-16-16-14-14-12-12-| 
E|-7-7---9-9-10-10---------------------------------------------------------------------| 
 
 
G|-------------------------------------------------------------------------------------------| 
D|-------------------------------------------------------------------------------------------| x4 
A|-10-10---10-12-12---12-10-10---10-12-12---12-10-10---10-12-12---12-17-17-16-16-14-14-12-12-| 
E|-------------------------------------------------------------------------------------------| 
 
 
G|-------------------------| 
D|-------------------------| x3 
A|-10-10-10-10-12-12-12-12-| 
E|-------------------------| 
 
 
G|----------------------------| 
D|----------------------------| 
A|-12-17-17-16-16-14-14-12-12-| 
E|----------------------------| 
 
 
G|-------------------------------------------------------------------------------------| 
D|-------------------------------------------------------------------------------------| x4 
A|-10-10-10-10-10-10-10-10-10-10-10-10-10-10-12-12-12-12-12-12-12-12-12-12-12-12-12-12-| 
E|-------------------------------------------------------------------------------------| 
 
 
G|---------------------------------| 
D|-9-9-9-9-9-9-9-9-9-9-9-9-9-9-9-9-| x2 
A|---------------------------------| 
E|---------------------------------| 
 
 
G|-----------------------------------------| 
D|-----------------------------------------| 
A|-2-2-2-2-2-2-2-2-2-2-7-7-7-7-7-7-7-7-7-7-| 
E|-----------------------------------------| 
 
 
G|-------------------------------------------------------------------------------------| 
D|-------------------------------------------------------------------------------------| 
A|-----------------10-10---10-12-12---12-10-10---10-12-12---12-17-17-16-16-14-14-12-12-| 
E|-7-7----9-9-10-10--------------------------------------------------------------------| 
 
 
G|-------------------------------------------------------------------------------------------| 
D|-------------------------------------------------------------------------------------------| x4 
A|-10-10---10-12-12---12-10-10---10-12-12---12-10-10---10-12-12---12-17-17-16-16-14-14-12-12-| 
E|-------------------------------------------------------------------------------------------| 
 
 
G|---------------------------------| 
D|-9-9-9-9-9-9-9-9-9-9-9-9-9-9-9-9-| 
A|---------------------------------| 
E|---------------------------------| 
 
 
 
Um abraço, Rogerio W. Lisboa(Raposão),
baixista da banda Emit 
	  

Search Paypal
auto scroll beats size up size down change color hide chords drawings
tab show chords e-chords YouTube Clip e-chords hide all tabs e-chords go to top tab