Two Door Cinema Club

home > Two Door Cinema Cl...

Kids (live) Tab

Two Door Cinema Club

Difficulty: nolevelnolevel

by adalgomes

tuner correct add songbook print version text version save to e-mail
chordsukulelecavacokeyboardtabbassdrumsharmonicsflute Guitar Pro
chords

Kids (live)

  		
 Intro 

e|-----------| 
B|-----------| 
G|11---9-----| 
D|12--11-----| 
A|-----------| 
E|-----------| 

e|-----------14-----------14----------14-12-12-12-----------14----------14-----------14-12-12-12---| 
B|-------------------------------------------------------------------------------------------------| 
G|-------------------------------------------------------------------------------------------------| 
D|--14-14-14-----14-14-14----14-14-14--------------14-14-14----14-14-14-----14-14-14---------------| 
A|-------------------------------------------------------------------------------------------------| 
E|-------------------------------------------------------------------------------------------------| 


e|-----------17-----------17----------17-15-15-15-----------17----------17-----------17-15-15-15---| 
B|-------------------------------------------------------------------------------------------------| 
G|-------------------------------------------------------------------------------------------------| 
D|--17-17-17-----17-17-17----17-17-17--------------17-17-17----17-17-17-----17-17-17---------------| 
A|-------------------------------------------------------------------------------------------------| 
E|-------------------------------------------------------------------------------------------------| 

"Why do you always talk about..." 
e|-------------------------------------------------| 
B|-------------------------------------------------| 
G|--18--18-16--------------------------------------| 
D|------------16--14-16---14-16-16-14-16-16-14-11~-|   (2x) 
A|-------------------------------------------------| 
E|-------------------------------------------------| 

"Talk talk talk..." 
e|------------------------------------------------------------              --------| 
B|---7--7-7-7-5-7-5-7--7-7-7-5-7-5-7--7-7-7-5-7-5-5-7-5-5-7-5 (2x), then    --3--2--| 
G|------------------------------------------------------------              --------| 


Chorus 
e|-----------14-----------14----------14-12-12-12-----------14----------14-----------14-12-12-12---| 
B|-------------------------------------------------------------------------------------------------| 
G|-------------------------------------------------------------------------------------------------| 
D|--14-14-14-----14-14-14----14-14-14--------------14-14-14----14-14-14-----14-14-14---------------| 
A|-------------------------------------------------------------------------------------------------| 
E|-------------------------------------------------------------------------------------------------| 


e|-----------17-----------17----------17-15-15-15-----------17----------17-----------17-15-15-15---| 
B|-------------------------------------------------------------------------------------------------| 
G|-------------------------------------------------------------------------------------------------| 
D|--17-17-17-----17-17-17----17-17-17--------------17-17-17----17-17-17-----17-17-17---------------| 
A|-------------------------------------------------------------------------------------------------| 
E|-------------------------------------------------------------------------------------------------| 

Pre Solo play (several times) those "D" notes together,     then... 
e|---X---------------------------------------------------------------| 
B|---15--------------------------------------------------------------| 
G|---19----------------------------------------------------19.-18.---|  . = fast picking 
D|---0---------------------------------------------------------------| 
A|---17--------------------------------------------------------------| 
E|---X---------------------------------------------------------------| 

Solo (2x) 
e|----------19.------| 
B|--19.-22.-----22.--| 
G|-------------------| . = fast picking 
D|-------------------| 
A|-------------------| 
E|-------------------| 

Final Solo (Woooo ooo, wooooo ooo...) (2x) 

e|-------------------------------12-12-12-12-12-12-12----------------------------------------------------------| 
B|-15-15-15-15-15-15-15--12--12------------------------11--11--15-15-15-15-15-15-15---12--12-------------------| 
G|-------------------------------------------------------------------------------------------9-9-9-9-9-9-9/11-7| 
D|-------------------------------------------------------------------------------------------------------------| 
A|-------------------------------------------------------------------------------------------------------------| 
E|-------------------------------------------------------------------------------------------------------------| 
	  

Search Paypal
auto scroll beats size up size down change color hide chords drawings
tab show chords e-chords YouTube Clip e-chords hide all tabs e-chords go to top tab