Two Door Cinema Club

home > Two Door Cinema Cl...

Are We Ready Tab

Two Door Cinema Club

Difficulty: nolevelnolevel

by paulantunes

tuner correct add songbook print version text version save to e-mail
chordsukulelecavacokeyboardtabbassdrumsharmonicsflute Guitar Pro
chords

Are We Ready

  		
Intro 

e|-------------------------| 
B|-------------------------| 
G|-12-12-12-10-12-12-12-10-| 8 Times 
D|-------------------------| 
A|-------------------------| 
E|-------------------------| 


Verse 

e|-----------------------------------------------------------------------------------------------------------| 
B|------------------------------------------10-10--------------------------10-10-----------------------------| 
G|----------9-10--------------9-10---------------------------9-10---------------------------9-10----10-12-12-| 
D|-12-12-12------12---12-12-12-----12-12-12---------12-12-12------12-12-12---------12-12-12------12----------| 
A|-----------------------------------------------------------------------------------------------------------| 
E|-----------------------------------------------------------------------------------------------------------| 


Chorus 

e|-----------------------------------------------------------------------------------------------------------| 
B|----------------------------------10-10------------10-10-------------------------------------10--------10--| 
G|-12-12-10-12-10-9--------------------------------------------10-12---12-12-10-12-10-9---12-10--12-12-10--12| 
D|-----------------12---12-12-10-12-------12-12-10-12-------12--------------------------12-------------------| 
A|-----------------------------------------------------------------------------------------------------------| 
E|-----------------------------------------------------------------------------------------------------------| 


Bridge 

e|---------------------------------------------------------------------------------------------------| 
B|-----------------------------------------10--------------------------------------------------------| 
G|---------------------10-10-12-12---12--12--12-10-----------------------12-10-----------12-10-------| 
D|-12--12-12-10-9--------------------------------12---12-12-12-10-9-----------12-10-----------12-10--| 
A|----------------12-----------------------------------------------12--------------12-------------12-| 
E|---------------------------------------------------------------------------------------------------| 

e|----------------------------------------------------------------------------------| 
B|--------------------------------------------------------------------------10------| 
G|-10-12-10-12-10-12--10-12-10-12-10-12--10-12-10-12-10-12-10-12-10-12-10-12--10-10-| 
D|----------------------------------------------------------------------------------| 
A|----------------------------------------------------------------------------------| 
E|----------------------------------------------------------------------------------| 

e|-----------------------------------------------------------------------| 
B|------------------------------10------------------------------10-------| 
G|-10-12-10-12-10-12-10-12-10-12--10-10-10-12-10-12-10-12--10-12--9-9-10-| 
D|-----------------------------------------------------------------------| 
A|-----------------------------------------------------------------------| 
E|-----------------------------------------------------------------------| 
	  

Search Paypal
auto scroll beats size up size down change color hide chords drawings
tab show chords e-chords YouTube Clip e-chords hide all tabs e-chords go to top tab