Two Door Cinema Club

home > Two Door Cinema Cl...

Settle Tab

Two Door Cinema Club

Difficulty: nolevelnolevel

by joaoewerton

tuner correct add songbook print version text version save to e-mail
chordsukulelecavacokeyboardtabbassdrumsharmonicsflute Guitar Pro
chords

Settle

  		

Very first part: 

e|--0----3----0-------0----3----0-------0----3----0-------0----3----0--------| 
B|--1------------3----1------------3----1------------3----1------------3-----| 
G|---------------------------------------------------------------------------| 
D|---------------------------------------------------------------------------| 
A|---------------------------------------------------------------------------| 
E|---------------------------------------------------------------------------| 

(x2) 

Then into the main start riff: 

e|--0----3----0----0----3----0-----------------------------------------------| 
B|--1--------------1--------------1----3----1--------------------------------| 
G|--------------------------------2--------------2----0----0----2------------| 
D|----------------------------------------------------2---------3------------| 
A|---------------------------------------------------------------------------| 
E|---------------------------------------------------------------------------| 

This is repeated 4 times until the vocals come in, and then is just repeated all the way  
through the chorus. 

At about 1:27 this riff comes in: 

e|------------0---------------------5---3---------0--------------------------| 
B|----------------3--------3---3----------------------------3-------(1)------| 
G|--0----0-------------------------------------------------------------------| 
D|---------------------------------------------------------------------------| 
A|---------------------------------------------------------------------------| 
E|---------------------------------------------------------------------------| 

This is played twice and after the second time goes straight into the "and I see the  
world" riff. This is the best I could do, so use this as a guideline and just try to play  
about until you get something that sounds more or less right: 

e|--0--3--3--5--3--0----------0-3-5--------------3-5-3-0---------------------| 
B|--------------------3-3-1-3----------3-3-1-3-1-----------------------------| 
G|---------------------------------------------------------------------------| 
D|---------------------------------------------------------------------------| 
A|---------------------------------------------------------------------------| 
E|---------------------------------------------------------------------------| 

e|------------0---------------------5---3---------0--------------------------| 
B|----------------3--------3---3----------------------------3-------(1)------| 
G|--0----0-------------------------------------------------------------------| 
D|---------------------------------------------------------------------------| 
A|---------------------------------------------------------------------------| 
E|---------------------------------------------------------------------------| 

And then into the chorus: 

e|--3---3---5---3----3---3---5---3-------------------------------------------| 
B|-----------------------------------1---1---3---1---------------------------| 
G|---------------------------------------------------2---0---0---0---2-------| 
D|---------------------------------------------------------------------------| 
A|---------------------------------------------------------------------------| 
E|---------------------------------------------------------------------------| 

In the final repeat of this chorus this is played, to end, which leads into the main  
start riff to finish 

e|--3---3---5---3----3---3---5---3-----------------------1---0---------------| 
B|-----------------------------------1---1---3---1----------------1----------| 
G|---------------------------------------------------2------------0----------| 
D|----------------------------------------------------------------2----------| 
A|----------------------------------------------------------------3----------| 
E|---------------------------------------------------------------------------| 

Outro to end 

e|--0----3----0----0----3----0-----------------------------------------------| 
B|--1--------------1--------------1----3----1--------------------------------| 
G|--------------------------------2--------------2----0----0----2------------| 
D|----------------------------------------------------2---------3------------| 
A|---------------------------------------------------------------------------| 
E|---------------------------------------------------------------------------| 
 
	  

Search Paypal
auto scroll beats size up size down change color hide chords drawings
tab show chords e-chords YouTube Clip e-chords hide all tabs e-chords go to top tab