Two Door Cinema Club

home > Two Door Cinema Cl...

What You Know Tab

Two Door Cinema Club

Difficulty: nolevelnolevel

by edsooliveira

tuner correct add songbook print version text version save to e-mail
chordsukulelecavacokeyboardtabbassdrumsharmonicsflute Guitar Pro
chords

What You Know

  		(riff 1) 

      
------------------------- 
------17-19-17----------- 
---18----------18-18----- 
------------------------- 
------------------------- 
       

(riff 2) 

      
------------------------- 
------17-19-17----------- 
---18----------16-18----- 
------------------------- 
------------------------- 
       

ou 

(riff 2) 
      
------------------------- 
------17-19-17----------- 
---18----------16-14----- 
------------------------- 
------------------------- 
       

(riff 3) 
      
------------------------------------------- 
------17-19-17----------22-21-21-22-21----- 
---18----------18-18-------------------18-- 
------------------------------------------- 
------------------------------------------- 
       


(riff 4) 
      
-------------------------------------- 
----7-7-7---19-19-19---17-17-17------- 
----x-x-x---x--x--x----x--x--x-------- 
----4-4-x---16-16-16---14-14-14------- 
       

      
------------ 
----7-7-7--- 
----x-x-x--- 
----4-4-x--- 
       

(riff 5) 

      
D|--4-4-4-4--2-2----  (2x) 
       

D|-4-4-4-4-4-4-4-4..... 
	  

Search Paypal
auto scroll beats size up size down change color hide chords drawings
tab show chords e-chords YouTube Clip e-chords hide all tabs e-chords go to top tab