Two Door Cinema Club

home > Two Door Cinema Cl...

You're Not Stubborn (intro) Tab

Two Door Cinema Club

Difficulty: nolevelnolevel

by bombaXXX

tuner correct add songbook print version text version save to e-mail
chordsukulelecavacokeyboardtabbassdrumsharmonicsflute Guitar Pro
chords

You're Not Stubborn (intro)

  		Standard Tuning 
No Capo Required 

I notice that no one has the tabbing up for this song yet, which is a shame because it's  
an awesome song! I did my best at trying to figure it out. This tab works for the  
Chorus also. 
Enjoy :) 

e|7-7--7-7-7--5--5---7-7-7--5-----7-7-7--5--5---5--14-14--17-----------------| 
B|-----------------------------7--------------7------------------------------| 
G|---------------------------------------------------------------------------| 
D|---------------------------------------------------------------------------| 
A|---------------------------------------------------------------------------| 
E|---------------------------------------------------------------------------| 


e|-7-7-7--5--5---7-7-7--5-----7-7-7--5--5----2---0---------------------------| 
B|-------------------------7-------------------3---0-------------------------| 
G|---------------------------------------------------------------------------| 
D|---------------------------------------------------------------------------| 
A|---------------------------------------------------------------------------| 
E|---------------------------------------------------------------------------| 
	  

Search Paypal
auto scroll beats size up size down change color hide chords drawings
tab show chords e-chords YouTube Clip e-chords hide all tabs e-chords go to top tab