Two Door Cinema Club

home > Two Door Cinema Cl...

Secret Circus Tab

Two Door Cinema Club

Difficulty: nolevelnolevel

by victborges

tuner correct add songbook print version text version save to e-mail
chordsukulelecavacokeyboardtabbassdrumsharmonicsflute Guitar Pro
chords

Secret Circus

  		

Tuning:E standard 

well guys this is a demo song of them some guys were listening this song maybe you like but do you want to 
play it ? its easy i did this by ear 

   Intro 
e|-----------------------------------------------------------------------------| 
B|14-14-14-17---14--14-14-14--- 14------14-14-14-17--14---14-14-14-------------| 
G|---------------------------16------------------------------------16--14------| x4 
D|-----------------------------------------------------------------------------| 
A|-----------------------------------------------------------------------------| 
E|-----------------------------------------------------------------------------| 

Verse 

e|---------------------------------------------------------------------------| 
B|---14--17--14--------------------------------------------------------------| 
G|---------------16-14-13----------------------------------------------------| 
D|---------------------------------------------------------------------------|  x3 
A|---------------------------------------------------------------------------| 
E|---------------------------------------------------------------------------| 
Chorus 
e|---------------------------------------------------------------------------| 
B|--14-14-14-14-14-14-14-14-19-19-19-17-17-17-14-----------------------------| 
G|---------------------------------------------------------------------------| 
D|---------------------------------------------------------------------------| 
A|---------------------------------------------------------------------------| 
E|---------------------------------------------------------------------------| 

e|------------------------------------------------| 
B|-14-14-14-14-14-14-14-14--19-19-19-17-17-17-14--| 
G|------------------------------------------------| 
D|------------------------------------------------| 
A|------------------------------------------------| 
E|------------------------------------------------| 

e|------------------------------------------------------------------| 
B|-14-14-14-14-14-14-14-14--19-19-19-17-17-17-19-19-19-14-14-17-14--| 
G|------------------------------------------------------------------| 
D|------------------------------------------------------------------| 
A|------------------------------------------------------------------| 
E|------------------------------------------------------------------| 
 and the final part its the intro 

  Intro 
e|-----------------------------------------------------------------------------| 
B|14-14-14-17---14--14-14-14--- 14------14-14-14-17--14---14-14-14-------------| 
G|---------------------------16------------------------------------16--14------| x4 
D|-----------------------------------------------------------------------------| 
A|-----------------------------------------------------------------------------| 
E|-----------------------------------------------------------------------------| 

************************************ 

| /   slide up 
| \   slide down 
| h   hammer-on 
| p   pull-off 
| ~   vibrato 
| +   harmonic 
| x   Mute note 
| b   Bend 
| pb  Pre-bend 
| br  Bend release 
| pbr Pre-bend release 
| brb Bend release bend 

************************************ 
	  

Search Paypal
auto scroll beats size up size down change color hide chords drawings
tab show chords e-chords YouTube Clip e-chords hide all tabs e-chords go to top tab