Rob Scallon

home > Rob Scallon

We'll Be Fine Tab

Rob Scallon

Difficulty: nolevelnolevel

by tarikike

tuner correct add songbook print version text version save to e-mail
chordsukulelecavacokeyboardtabbassdrumsharmonicsflute Guitar Pro
chords

We'll Be Fine

  		 

Legend 
L - tied note 
x - dead note 
h - hammer on/pull off 
b - bend 
s - slide 
~ - vibrato 
g - ghost note 
> - accentuated note 
t - trill 
M - palm mute 
. - staccato 
P - popping (bass) 
S - slapping (bass) 
+ - tapping 
W - wide vibrato 
< - fade in 
w - whammy bar 
= - tremolo picking 
v - brush up 
^ - brush down 
V - pick stroke up 
n - pick stroke down 


D |-----------16----------16----------16----------16---| 
A |--------12----------12----------12----------12------| 
F#|--0--0--------0--0--------0--0--------0--0----------| 
D |--0-----------0-----------0-----------0-------------| 
A |--0-----------0-----------0-----------0-------------| 
D |--0-----------0-----------0-----------0-------------| 


-----------16----------16----------16----------16---| 
--------12----------12----------12----------12------| 
--0--0--------0--0--------0--0--------0--0----------| 
--0-----------0-----------0-----------0-------------| 
--0-----------0-----------0-----------0-------------| 
--0-----------0-----------0-----------0-------------| 


-----------16----------16----------16----------16---| 
--------12----------12----------12----------12------| 
--0--0--------0--0--------0--0--------0--0----------| 
--0-----------0-----------0-----------0-------------| 
--10----------10----------10----------10------------| 
--0-----------0-----------0-----------0-------------| 


-----------16----------16----------16----------16---| 
--------12----------12----------12----------12------| 
--0--0--------0--0--------0--0--------0--0----------| 
--0-----------0-----------0-----------0-------------| 
--10----------10----------10----------10------------| 
--0-----------0-----------0-----------0-------------| 


-----------16----------16----------14----------12---| 
--------12----------12----------10----------9-------| 
--0--0--------0--0--------0--0--------0--0----------| 
--0-----------0-----------0-----------0-------------| 
--0-----------0-----------0-----------0-------------| 
--0-----------0-----------0-----------0-------------| 


-----------12----------14----------16----------16---| 
--------9-----------10----------12----------0-------| 
--0--0--------0--0--------0--0--------0--0----------| 
--0-----------0-----------0-----------0-------------| 
--0-----------0-----------0-----------0-------------| 
--0-----------0-----------0-----------0-------------| 


-----------16----------16----------16----------16---| 
--------0-----------0-----------0-----------0-------| 
--0--0--------0--0--------0--0--------0--0----------| 
--0-----------0-----------0-----------0-------------| 
--10----------10----------10----------10------------| 
--0-----------0-----------0-----------0-------------| 


--------------------16----------------------16----------------------------------| 
--------------0-----------------------0-----------------------------0-----------| 
--0-----0-----------------0-----0-----------------------------0-----------------| 
--0-----------------------------------------------------0-----------------------| 
--10----------------------10----------------------7-----------------------7s-9--| 
--0-----------------------0-----------------------------------------------------| 


--------------------| 
------------0-------| 
------0-------------| 
0-------------------| 
--------------------| 
--------------------| 


--------------------7-----------------------7-----------------------5-----------| 
--------------4-----------------------4-----------------------4-----------------| 
--0-----0-----------------0-----0-----------------0-----0-----------------0-----| 
--0-----------------------0-----------------------0-----------------------0-----| 
--0-----------------------0-----------------------0-----------------------0-----| 
--0-----------------------0-----------------------0-----------------------0-----| 


--------------------| 
------------5s-7----| 
------0-------------| 
0-------------------| 
--------------------| 
--------------------| 


--------------------4-----------------------------------------------------------| 
--------------5-----------------------------5s-7--------------------7s-9--------| 
--0-----0-----------------0-----------0-----------0-----------0-----------0-----| 
--0-----------------------0-----0-----------------0-----0-----------------0-----| 
--0-----------------------0-----------------------0-----------------------0-----| 
--0-----------------------0-----------------------0-----------------------0-----| 


--------------------|-----------4-----------4-----------4-----------4----| 
------------0-------|--------0-----------0-----------0-----------0-------| 
------0-------------|-----5-----------5-----------5-----------5----------| 
0-------------------|--0-----------0-----------0-----------0-------------| 
--------------------|--0-----------0-----------0-----------0-------------| 
--------------------|--5-----------5-----------5-----------5-------------| 


--------------------4-----------------------4-----------------------------------| 
--------------0-----------------------0-----------------------------0-----------| 
--------5-----------------------5-----------------------------0-----------------| 
--0-----------------------0-----------------------0g----0-----------------0g----| 
--0-----------------------0-----------------------0g----------------------0g----| 
--5-----------------------5-----------------------2-----------------------2--4--| 


--------------------| 
------------0-------| 
------0-------------| 
0-------------------| 
--------------------| 
--------------------| 


--------------------7-----------------------7-----------------------5-----------| 
--------------4-----------------------4-----------------------4-----------------| 
--0-----0-----------------0-----0-----------------0-----0-----------------0-----| 
--0-----------------------0-----------------------0-----------------------0-----| 
--0-----------------------0-----------------------0-----------------------0-----| 
--0-----------------------0-----------------------0-----------------------0-----| 


--------------------| 
------------5s-7----| 
------0-------------| 
0-------------------| 
--------------------| 
--------------------| 


--------------------4-----------------------------------------------------------| 
--------------5-----------------------------5s-7--------------------7s-9--------| 
--0-----0-----------------0-----------0-----------0-----------0-----------0-----| 
--0-----------------------0-----0-----------------0-----0-----------------0-----| 
--0-----------------------0-----------------------0-----------------------0-----| 
--0-----------------------0-----------------------0-----------------------0-----| 


--------------------|-----------4-----------4-----------4-----------4----| 
------------0-------|--------0-----------0-----------0-----------0-------| 
------0-------------|-----5-----------5-----------5-----------5----------| 
0-------------------|--0-----------0-----------0-----------0-------------| 
--------------------|--0-----------0-----------0-----------0-------------| 
--------------------|--5-----------5-----------5-----------5-------------| 


-----------4-----------4-----------4-----------4----| 
--------0-----------0-----------0-----------0-------| 
-----0-----------0-----------0-----------0----------| 
--0-----------0-----------0-----------0-------------| 
--0-----------0-----------0-----------0-------------| 
--5-----------5-----------5-----------5-------------| 


-----------0-----------0-----------0-----------0----| 
--------5-----------5-----------5-----------5-------| 
-----7-----------7-----------7-----------7----------| 
--0-----------0-----------0-----------0-------------| 
--0-----------0-----------0-----------0-------------| 
--7-----------7-----------7-----------7-------------| 


-----------0-----------0-----------0-----------0----| 
--------5-----------5-----------5-----------5-------| 
--7>-0--------7>-0--------7>-0--------7>-0----------| 
--7>----------7>----------7>----------7>------------| 
--7>----------7>----------7>----------7>------------| 
--7>----------7>----------7>----------7>------------| 


-----------0-----------0-----------0-----------0----| 
--------4-----------4-----------4-----------4-------| 
-----5-----------5-----------5-----------5----------| 
--0-----------0-----------0-----------0-------------| 
--0-----------0-----------0-----------0-------------| 
--5-----------5-----------5-----------5-------------| 


-----------0-----------0-----------0-----------0----| 
--------0-----------0-----------0-----------0-------| 
-----0-----------0-----------0-----------0----------| 
--------------7-----------12----------0-------------| 
--5>----------7>----------12>---------0>------------| 
--5>----------------------------------0>------------| 


-----------5-----------5-----------5-----------4----| 
--------0-----------0-----------0-----------0-------| 
-----7-----------7-----------7-----------7----------| 
--0-----------0-----------0-----------0-------------| 
--0-----------0-----------0-----------0-------------| 
--7-----------7-----------7-----------7-------------| 


-----------0-----------0-----------0-----------0----| 
--------5-----------5-----------5-----------5-------| 
--7>-0--------7>-0--------7>-0--------7>-0----------| 
--7>----------7>----------7>----------7>------------| 
--7>----------7>----------7>----------7>------------| 
--7>----------7>----------7>----------7>------------| 


-----------4-----------4-----------2-----------0----| 
--------0-----------0-----------0-----------0-------| 
-----5-----------5-----------5-----------5----------| 
--0-----------0-----------0-----------0-------------| 
--0-----------0-----------0-----------0-------------| 
--5-----------5-----------5-----------5-------------| 

                          ^ 
-----------0-----------0--0-------------------------| 
--------0-----------0-----0-------------------------| 
-----0-----------0--------7-------------------------| 
--------------7-----------0-------------------------| 
--5>----------7>----------0-------------------------| 
--5>----------------------7-------------------------| 


--------------------7-----------------------7-----------------------5-----------| 
--------------4-----------------------4-----------------------4-----------------| 
--0-----0-----------------0-----0-----------------0-----0-----------------0-----| 
--0-----------------------0-----------------------0-----------------------0-----| 
--0-----------------------0-----------------------0-----------------------0-----| 
--0-----------------------0-----------------------0-----------------------0-----| 


--------------------| 
------------5s-7----| 
------0-------------| 
0-------------------| 
--------------------| 
--------------------| 


--------------------4-----------------------------------------------------------| 
--------------5-----------------------------5s-7--------------------7s-9--------| 
--0-----0-----------------0-----------0-----------0-----------0-----------0-----| 
--0-----------------------0-----0-----------------0-----0-----------------0-----| 
--0-----------------------0-----------------------0-----------------------0-----| 
--0-----------------------0-----------------------0-----------------------0-----| 


--------------------|-----------4-----------4-----------4-----------4----| 
------------0-------|--------0-----------0-----------0-----------0-------| 
------0-------------|-----5-----------5-----------5-----------5----------| 
0-------------------|--0-----------0-----------0-----------0-------------| 
--------------------|--0-----------0-----------0-----------0-------------| 
--------------------|--5-----------5-----------5-----------5-------------| 


--------------------4-----------------------4-----------------------------------| 
--------------0-----------------------0-----------------------------0-----------| 
--------5-----------------------5-----------------------------0-----------------| 
--0-----------------------0-----------------------0-----0-----------------0-----| 
--0-----------------------0-----------------------0-----------------------0-----| 
--5-----------------------5-----------------------2-----------------------2--4--| 


--------------------| 
------------0-------| 
------0-------------| 
0-------------------| 
--------------------| 
--------------------| 


--------------------7-----------------------7-----------------------5-----------| 
--------------4-----------------------4-----------------------4-----------------| 
--0-----0-----------------0-----0-----------------0-----0-----------------0-----| 
--0-----------------------0-----------------------0-----------------------0-----| 
--0-----------------------0-----------------------0-----------------------0-----| 
--0-----------------------0-----------------------0-----------------------0-----| 


--------------------| 
------------5s-7----| 
------0-------------| 
0-------------------| 
--------------------| 
--------------------| 


--------------------4-----------------------------------------------------------| 
--------------5-----------------------------5s-7--------------------7s-9--------| 
--0-----0-----------------0-----------0-----------0-----------0-----------0-----| 
--0-----------------------0-----0-----------------0-----0-----------------0-----| 
--0-----------------------0-----------------------0-----------------------0-----| 
--0-----------------------0-----------------------0-----------------------0-----| 


--------------------|-----------4-----------4-----------4-----------4----| 
------------0-------|--------0-----------0-----------0-----------0-------| 
------0-------------|-----5-----------5-----------5-----------5----------| 
0-------------------|--0-----------0-----------0-----------0-------------| 
--------------------|--0-----------0-----------0-----------0-------------| 
--------------------|--5-----------5-----------5-----------5-------------| 


-----------4-----------4-----------4-----------4----| 
--------0-----------0-----------0-----------0-------| 
-----0-----------0-----------0-----------0----------| 
--0-----------0-----------0-----------0-------------| 
--0-----------0-----------0-----------0-------------| 
--5-----------5-----------5-----------5-------------| 


-----------7-----------9-----------11----------12---| 
--------4-----------5-----------7-----------9-------| 
--0--0--------0--0--------0--0--------0--0----------| 
--0-----------0-----------0-----------0-------------| 
--0-----------0-----------0-----------0-------------| 
--0-----------0-----------0-----------0-------------| 


-----------12----------11----------0-----------0----| 
--------9-----------9-----------12----------0-------| 
--0--0--------0--0--------0--0--------0--0----------| 
--0-----------0-----------0-----------0-------------| 
--0-----------0-----------0-----------0-------------| 
--0-----------0-----------0-----------0-------------| 


-----------4-----------7-----------7-----------7----| 
--------0-----------0-----------0-----------0-------| 
-----5-----------5-----------5-----------5----------| 
--0-----------0-----------0-----------0-------------| 
--0-----------0-----------0-----------0-------------| 
--5-----------5-----------5-----------5-------------| 


-----------7-----------5-----------4-----------0----| 
--------0-----------0-----------0-----------0-------| 
-----0-----------0-----------0-----------0----------| 
--0g----------0g----------0g----------0g------------| 
--0g----------0g----------0g----------0g------------| 
--4-----------4-----------2-----------0-------------| 


-----------7-----------9-----------11----------12---| 
--------4-----------5-----------7-----------9-------| 
--0--0--------0--0--------0--0--------0--0----------| 
--0-----------0-----------0-----------0-------------| 
--0-----------0-----------0-----------0-------------| 
--0-----------0-----------0-----------0-------------| 


-----------12----------11----------16----------12---| 
--------9-----------9-----------12----------0-------| 
--0--0--------0--0--------0--0--------0--0----------| 
--0-----------0-----------0-----------0-------------| 
--0-----------0-----------0-----------0-------------| 
--0-----------0-----------0-----------0-------------| 


-----------12----------12----------12----------12---| 
--------0-----------0-----------0-----------0-------| 
-----0-----------0-----------0-----------0----------| 
--9-----------9-----------9-----------9-------------| 
--10----------10----------10----------10------------| 
--0-----------0-----------0-----------0-------------| 


--------------------12----------------------12----------------------------------| 
--------------0-----------------------0-----------------------------0-----------| 
--------0-----------------------0-----------------------------0-----------------| 
--9-----------------------9-----------------------5-----5-----------------5--7--| 
--10----------------------10----------------------7-----------------------7s-9--| 
--0-----------------------0-----------------------------------------------------| 


--------------------|-----------4-----------7-----------5-----------0----| 
------------0-------|--------5-----------4-----------7-----------5-------| 
------0-------------|-----0-----------0-----------0-----------0----------| 
7-------------------|--0-----------0-----------0-----------0-------------| 
--------------------|--0-----------0-----------0-----------0-------------| 
--------------------|--0-----------0-----------0-----------0-------------| 


-----------4-----------4-----------4-----------0----| 
--------0-----------0-----------0-----------0-------| 
-----5-----------5-----------5-----------5s-7-------| 
--0-----------0-----------0-----------0-------------| 
--0-----------0-----------0-----------0-------------| 
--5-----------5-----------5-----------5-----7-------| 


-----------2-----------7-----------5-----------0----| 
--------4-----------9-----------7-----------5-------| 
-----0-----------0-----------0-----------0----------| 
--0-----------0-----------0-----------0-------------| 
--0-----------0-----------0-----------0-------------| 
--0-----------0-----------0-----------0-------------| 


-----------4-----------4-----------0-----------0----| 
--------0-----------0-----------0-----------0-------| 
-----5-----------5--------7--7--------7--7----------| 
--0-----------0-----------0-----------0-------------| 
--0-----------0-----------0-----------0-------------| 
--5-----------5-----------7-----------7-------------| 


-----------7-----------16----------14----------12---| 
--------4-----------12----------10----------9-------| 
-----0-----------0-----------0-----------0----------| 
--0-----------0-----------0-----------0-------------| 
--0-----------0-----------0-----------0-------------| 
--0-----------0-----------0-----------0-------------| 


-----------12----------12----------12----------0----| 
--------0-----------0-----------0-----------0-------| 
-----0-----------0-----------0-----------0----------| 
--9-----------9-----------9-------------------------| 
--10----------10----------10----------10----12------| 
--0-----------0-----------0-----------0-------------| 


-----------0-----------0-----------0-----------0----| 
--------5-----------5-----------5-----------5-------| 
-----7-----------7-----------7-----------7----------| 
--0-----------0-----------0-----------0-------------| 
--0-----------0-----------0-----------0-------------| 
--7-----------7-----------7-----------7-------------| 


-----------0-----------0-----------0-----------0----| 
--------5-----------5-----------5-----------5-------| 
--7>-0--------7>-0--------7>-0--------7>-0----------| 
--7>----------7>----------7>----------7>------------| 
--7>----------7>----------7>----------7>------------| 
--7>----------7>----------7>----------7>------------| 


-----------0-----------0-----------0-----------0----| 
--------4-----------4-----------4-----------4-------| 
-----5-----------5-----------5-----------5----------| 
--0-----------0-----------0-----------0-------------| 
--0-----------0-----------0-----------0-------------| 
--5-----------5-----------5-----------5-------------| 


-----------0-----------0-----------0-----------0----| 
--------0-----------0-----------0-----------0-------| 
-----0-----------0-----------0-----------0----------| 
--------------7-----------12----------0-------------| 
--5>----------7>----------12>---------0>------------| 
--5>----------------------------------0>------------| 


-----------5-----------5-----------5-----------4----| 
--------0-----------0-----------0-----------0-------| 
-----7-----------7-----------7-----------7----------| 
--0-----------0-----------0-----------0-------------| 
--0-----------0-----------0-----------0-------------| 
--7-----------7-----------7-----------7-------------| 


-----------0-----------0-----------0-----------0----| 
--------5-----------5-----------5-----------5-------| 
--7>-0--------7>-0--------7>-0--------7>-0----------| 
--7>----------7>----------7>----------7>------------| 
--7>----------7>----------7>----------7>------------| 
--7>----------7>----------7>----------7>------------| 


-----------4-----------4-----------2-----------0----| 
--------0-----------0-----------0-----------0-------| 
-----5-----------5-----------5-----------5----------| 
--0-----------0-----------0-----------0-------------| 
--0-----------0-----------0-----------0-------------| 
--5-----------5-----------5-----------5-------------| 

                          ^ 
-----------0-----------0--0-------------------------|--0--12-12------| 
--------0-----------0-----0-------------------------|--0-----12------| 
-----0-----------0--------7-------------------------|--0-----12------| 
--------------7-----------0-------------------------|--0-----12------| 
--5>----------7>----------0-------------------------|--0-----12------| 
--5>----------------------7-------------------------|--0-----12------| 


--7--------------------------4-----------------------4----------------------| 
--7--------------------------0-----------------------------7----------------| 
--7--------------------------5-----------------------------------5----------| 
--7--------------------------0----------------------------------------------| 
--7--------------------------0----------------------------------------------| 
--7--------------------------5-----------------5-----------------------5L---| 


----------------------------------------------------------|--0--12-12------| 
----------------------------------------------------------|--0-----12------| 
-----------------0-----------------------------0----------|--0-----12------| 
-----------0-----------------5-----------0----------------|--0-----12------| 
-----0----------------------------------------------------|--0-----12------| 
--5--------------------5----------------------------------|--0-----12------| 


--7--------------------------4-----------------------4----------------------| 
--7--------------------------0-----------------------------7----------------| 
--7--------------------------5-----------------------------------5----------| 
--7--------------------------0----------------------------------------------| 
--7--------------------------0----------------------------------------------| 
--7--------------------------5-----------------5-----------------------5L---| 


----------------------------------------------------------|--0--12-12------| 
----------------------------------------------------------|--0-----12------| 
-----------------0-----------------------------0----------|--0-----12------| 
-----------0-----------------5-----------0----------------|--0-----12------| 
-----0----------------------------------------------------|--0-----12------| 
--5--------------------5----------------------------------|--0-----12------| 


--7--------------------------4-----------------------4----------------------| 
--7--------------------------0-----------------------------7----------------| 
--7--------------------------5-----------------------------------5----------| 
--7--------------------------0----------------------------------------------| 
--7--------------------------0----------------------------------------------| 
--7--------------------------5-----------------5-----------------------5L---| 


----------------------------------------------------------|--0--12-12------| 
----------------------------------------------------------|--0-----12------| 
-----------------0-----------------------------0----------|--0-----12------| 
-----------0-----------------5-----------0----------------|--0-----12------| 
-----0----------------------------------------------------|--0-----12------| 
--5--------------------5----------------------------------|--0-----12------| 


--7--4L---|--4----|| 
--7--0L---|--0----|| 
--7--5L---|--5----|| 
--7--0L---|--0----|| 
--7--0L---|--0----|| 
--7--5L---|--5----|| 
	  

Full key step upFull key step up
Half key step upHalf key step up
Half key step downHalf key step down
Full key step downFull key step down
Search Paypal
auto scroll beats size up size down change color hide chords drawings
tab show chords e-chords YouTube Clip e-chords hide all tabs e-chords go to top tab