Rob Scallon

home > Rob Scallon

Every Fret Song Tab

Rob Scallon

Difficulty: nolevelnolevel

by andrsouza

tuner correct add songbook print version text version save to e-mail
chordsukulelecavacokeyboardtabbassdrumsharmonicsflute Guitar Pro
chords

Every Fret Song

  		
Main Guitar: 


D |-------|-------|-------|----------------------------------------------------| 
A |-------|-------|-------|----------------------------------------------------| 
F |-------|-------|-------|--------------------------------------13.13-12-11---| 
C |-------|-------|-------|----------------------------------------------------| 
G |-------|-------|-------|----------------------------------------------------| 
D |--0L---|--0L---|--0L---|--0-------------------------------------------------| 


----------------------------------------------------| 
----------------------------------------------------| 
--10~---------5--6--7--8--9~------------------------| 
--------------------------------------14-13-12-11---| 
----------------------------------------------------| 
----------------------------------------------------| 


----------------------------------------------------| 
----------------------------------------------------| 
----------------------------------------------------| 
--10~---------5--6--7--8--9~------------------------| 
--------------------------------------15-14-13-12---| 
----------------------------------------------------| 


----------------------------------------------------| 
----------------------------------------------------| 
----------------------------------------------------| 
--------------0--1--2--4--3~----------2~------------| 
--11~-----------------------------------------------| 
----------------------------------------------------| 


----------------------------------------------------| 
----------------------------------------------------| 
----------------------------------------------------| 
--------------------------------------19-18-17-16---| 
----------------------------------------------------| 
--0--0--0-----0--0--0-----0--0--0-------------------| 


----------------------------------------------------| 
----------------------------------------------------| 
--------------------------------------14-15-16-17---| 
--15~-----------------------------------------------| 
--------------16-17-18-19-19~-----------------------| 
----------------------------------------------------| 


----------------------------------------------------| 
--------------------------------------13-14-15-16---| 
--17----------20-19-18-17-16------------------------| 
----------------------------------------------------| 
----------------------------------------------------| 
----------------------------------------------------| 


--------------17-16-15-14-13~---------12~-----------| 
--17~-----------------------------------------------| 
----------------------------------------------------| 
----------------------------------------------------| 
----------------------------------------------------| 
----------------------------------------------------| 


----------------------------------------------------| 
----------------------------------------------------| 
----------------------------------------------------| 
----------------------------------------------------| 
----------------------------------------------------| 
--0--0--0-----0--0--0-----0--0--0-----0--0--0-------| 


----------------------------------------------------| 
----------------------------------------------------| 
----------------------------------------------------| 
----------------------------------------------------| 
--------------2--2--2-----3--3--3-----2--2--2-------| 
--1-------------------------------------------------| 


----------------------------------------------------| 
----------------------------------------------------| 
----------------------------------------------------| 
----------------------------------------------------| 
--------------------------3--2--1--0----------------| 
--4--4--4-----5--5--5-----------------4--3--2--1----| 


----------------------------------------------------| 
----------------------------------------------------| 
----------------------------------------------------| 
----------------------------------------------------| 
--------------7--7--7-----8--8--8-----7--7--7-------| 
--0-------------------------------------------------| 


----------------------------------------------------| 
----------------------------------------------------| 
----------------------------------------------------| 
----------------------------------------------------| 
--7--6--5--4--3-------------------------------------| 
--------------------------11-10-9--8--7-------------| 


----------------------------------------------------| 
----------------------------------------------------| 
----------------------------------------------------| 
----------------------------------------------------| 
----------------------------------------------------| 
--1-----------7--7--7-----6--7--8-----7--7--7-------| 


----------------------------------------------------|----------------| 
----------------------------------------------------|----------------| 
----------------------------------------------------|----------------| 
----------------------------------------------------|----------------| 
--11-11-11----12-12-12----12-11-10-9--8~------------|--7-------------| 
----------------------------------------------------|-----0--12-0----| 


--------------------0-------------------------------| 
----------------------------------------------------| 
--0--3--2--1--4-------------------------------------| 
--------------------------2~------------------------| 
----------------------------------------------------| 
--------------------------------------0-------------| 


----------------------------------------------------| 
----------------------------------------------------| 
----------------------------------------------------| 
----------------------------------------------------| 
----------------------------------------------------| 
--13----------19-19-19----20-20-20----19-19-19------| 


----------------------------------------------------| 
----------------------------------------------------| 
----------------------------------------------------| 
----------------------------------------------------| 
--------------------------15-14-13-12---------------| 
--16-16-16----17-17-17----------------16-15-14-13---| 


----------------------------------------------------| 
----------------------------------------------------| 
----------------------------------------------------| 
----------------------------------------------------| 
--------------19-19-19----20-20-20----19-19-19------| 
--12------------------------------------------------| 


----------------------------------------------------| 
----------------------------------------------------| 
----------------------------------------------------| 
----------------------------------------------------| 
--19-18-17-16-15------------------------------------| 
--------------------------22-22-21-20-19------------| 


----------------------------------------------------|----------------| 
----------------------------------------------------|----------------| 
----------------------------------------------------|----------------| 
----------------------------------------------------|-----------22---| 
----------------------------------------------------|--21b22~--------| 
--13----------19-19-19----18-19-20----19-19-19------|----------------| 


----------------------------|----------------|--19~---------20-19L--------| 
----------------------------|-----------0----|----------------------------| 
-----------------------22---|--21~-----------|----------------------------| 
--21----------20b-----------|----------------|----------------------------| 
----------------------------|----------------|----------------------------| 
----------------------------|----------------|----------------------------| 


--19~---19-20-21----20----19~-----------------------| 
--------------------------------------------22------| 
----------------------------------------------------| 
----------------------------------------------------| 
----------------------------------------------------| 
----------------------------------------------------| 


----------------------------------------------------| 
--21----------------------18-19-20-18-21------------| 
----------------------------------------------------| 
----------------------------------------------------| 
----------------------------------------------------| 
----------------------------------------------------| 


--18b-----------------------------------------------| 
----------------------------------------------------| 
--------------------------------------13.13-12-11---| 
----------------------------------------------------| 
----------------------------------------------------| 
----------------------------------------------------| 


----------------------------------------------------| 
----------------------------------------------------| 
--10~---------5--6--7--8--9~------------------------| 
--------------------------------------14-13-12-11---| 
----------------------------------------------------| 
----------------------------------------------------| 


----------------------------------------------------| 
----------------------------------------------------| 
----------------------------------------------------| 
--10~---------5--6--7--8--9~------------------------| 
--------------------------------------15-14-13-12---| 
----------------------------------------------------| 


----------------------------------------------------| 
----------------------------------------------------| 
----------------------------------------------------| 
--------------0--1--2--4--3~----------2~------------| 
--11~-----------------------------------------------| 
----------------------------------------------------| 


----------------------------------------------------| 
----------------------------------------------------| 
----------------------------------------------------| 
--------------------------------------19-18-17-16---| 
----------------------------------------------------| 
--0--0--0-----0--0--0-----0--0--0-------------------| 


----------------------------------------------------| 
----------------------------------------------------| 
--------------------------------------14-15-16-17---| 
--15~-----------------------------------------------| 
--------------16-17-18-19-19~-----------------------| 
----------------------------------------------------| 


----------------------------------------------------| 
--------------------------------------13-14-15-16---| 
--17----------20-19-18-17-16------------------------| 
----------------------------------------------------| 
----------------------------------------------------| 
----------------------------------------------------| 


--------------17-16-15-14-13~---------12~-----------| 
--17~-----------------------------------------------| 
----------------------------------------------------| 
----------------------------------------------------| 
----------------------------------------------------| 
----------------------------------------------------| 


----------------------------------------------------| 
--------------------------------------9--9--8--7----| 
----------------------------------------------------| 
----------------------------------------------------| 
----------------------------------------------------| 
--0--0--0-----0--0--0-----0--0--0-------------------| 


--------------------------------------12-11-10-9----| 
--6-----------1--2--3--4--5-------------------------| 
----------------------------------------------------| 
----------------------------------------------------| 
----------------------------------------------------| 
----------------------------------------------------| 


--8-----------3--4--5--6--7-------------------------| 
----------------------------------------------------| 
----------------------------------------------------| 
----------------------------------------------------| 
--------------------------------------15-14-13-12---| 
----------------------------------------------------| 


----------------------------------------------------| 
----------------------------------------------------| 
----------------------------------------------------| 
--------------0--1--2--4--3~----------2~------------| 
--11~-----------------------------------------------| 
----------------------------------------------------| 


----------------------------------------------------| 
----------------------------------------------------| 
----------------------------------------------------| 
--------------------------------------19-18-17-16---| 
----------------------------------------------------| 
--0--0--0-----0--0--0-----0--0--0-------------------| 


----------------------------------------------------| 
--------------------------------------10-11-12-13---| 
----------------------------------------------------| 
--15~-----------------------------------------------| 
--------------16-17-18-19-19~-----------------------| 
----------------------------------------------------| 


----------------------------------------------------| 
--13----------------------------------13-14-15-16---| 
--------------20-19-18-17-16------------------------| 
----------------------------------------------------| 
----------------------------------------------------| 
----------------------------------------------------| 


--------------5--4--3--2----|--1L---|--1~---|--0L---|--0L---|--0L---|--0----| 
--17~-----------------------|-------|-------|-------|-------|-------|-------| 
----------------------------|-------|-------|-------|-------|-------|-------| 
----------------------------|-------|-------|-------|-------|-------|-------| 
----------------------------|-------|-------|-------|-------|-------|-------| 
----------------------------|-------|-------|-------|-------|-------|-------| 


--22b-----------------------|----|| 
----------------------------|----|| 
----------------------------|----|| 
----------------------------|----|| 
----------------------------|----|| 
----------------------------|----|| 









Rhythm Guitar:  

                                                              
D |----|----|----|----|----------|----------|----------------| 
A |----|----|----|----|----------|----------|----------------| 
F |----|----|----|----|----------|----------|----------------| 
C |----|----|----|----|--10-9----|--10-9----|--6-----3--2----| 
G |----|----|----|----|--8--7----|--10-9----|--6-----3--2----| 
D |----|----|----|----|--8--7----|--8--7----|--4-----1--0----| 

                                                                            
----------------------------------------------------|----------|----------| 
----------------------------------------------------|----------|----------| 
----------------------------------------------------|----------|----------| 
----------------------------------------------------|--3--6----|--7--9----| 
----------------------------------------------------|--3--6----|--7--9----| 
--0M-0M-0M----0M-0M-0M----0M-0M-0M----1-------------|--1--4----|--5--7----| 

                                                                       
----------------|----------------------------------------------------| 
----------------|----------------------------------------------------| 
----------------|----------------------------------------------------| 
--9-----10-9----|----------------------------------------------------| 
--7-----8--7----|----------------------------------------------------| 
--7-----8--7----|--0M-0M-0M----0M-0M-0M----0M-0M-0M----0M-0M-0M------| 

                                                      
----------------------------------------------------| 
----------------------------------------------------| 
----------------------------------------------------| 
----------------------------------------------------| 
--------------2--2--2-----3--3--3-----2--2--2-------| 
--1-------------------------------------------------| 

                                                      
----------------------------------------------------| 
----------------------------------------------------| 
----------------------------------------------------| 
----------------------------------------------------| 
--------------------------3M-2M-1M-0M---------------| 
--4M-4M-4M----5M-5M-5M----------------4M-3M-2M-1M---| 

                                                      
----------------------------------------------------| 
----------------------------------------------------| 
----------------------------------------------------| 
----------------------------------------------------| 
--------------7--7--7-----8--8--8-----7--7--7-------| 
--0-------------------------------------------------| 

                                                      
----------------------------------------------------| 
----------------------------------------------------| 
----------------------------------------------------| 
----------------------------------------------------| 
--7--6--5--4--3-------------------------------------| 
--------------------------11-10-9--8--7-------------| 

                                                      
----------------------------------------------------| 
----------------------------------------------------| 
----------------------------------------------------| 
----------------------------------------------------| 
--------------2--2--2-----1--2--3-----2--2--2-------| 
--1-------------------------------------------------| 

                                                                       
----------------------------------------------------|----------------| 
----------------------------------------------------|----------------| 
----------------------------------------------------|----------------| 
----------------------------------------------------|----------------| 
--11-11-11----12-12-12----12-11-10-9--8~------------|--7-------------| 
----------------------------------------------------|-----0--12-0----| 

                                                      
--------------------0-------------------------------| 
----------------------------------------------------| 
--0--3--2--1--4-------------------------------------| 
--------------------------2~------------------------| 
----------------------------------------------------| 
--------------------------------------0-------------| 

                                                      
----------------------------------------------------| 
----------------------------------------------------| 
----------------------------------------------------| 
----------------------------------------------------| 
--------------2--2--2-----3--3--3-----2--2--2-------| 
--1-------------------------------------------------| 

                                                      
----------------------------------------------------| 
----------------------------------------------------| 
----------------------------------------------------| 
----------------------------------------------------| 
--------------------------3M-2M-1M-0M---------------| 
--4M-4M-4M----5M-5M-5M----------------4M-3M-2M-1M---| 

                                                      
----------------------------------------------------| 
----------------------------------------------------| 
----------------------------------------------------| 
----------------------------------------------------| 
--------------7--7--7-----8--8--8-----7--7--7-------| 
--0-------------------------------------------------| 

                                                      
----------------------------------------------------| 
----------------------------------------------------| 
----------------------------------------------------| 
----------------------------------------------------| 
--7--6--5--4--3-------------------------------------| 
--------------------------11-10-9--8--7-------------| 

                                                      
----------------------------------------------------| 
----------------------------------------------------| 
----------------------------------------------------| 
----------------------------------------------------| 
----------------------------------------------------| 
--1-----------7M-7M-7M----6M-7M-8M----7M-7M-7M------| 

                                                                               
----------------------------------------------------|----------------|-------| 
----------------------------------------------------|----------------|-------| 
----------------------------------------------------|----------------|-------| 
----------------------------------------------------|----------------|--2----| 
--11-11-11----12-12-12----12-11-10-9--8~------------|--7-------------|--2----| 
----------------------------------------------------|-----0--12-0----|--0----| 

          ^ 
-------|-------|-------|----------------------------------------------------| 
-------|--0----|--0----|----------------------------------------------------| 
--2----|--2----|--1----|----------------------------------------------------| 
--3----|--3----|--2----|----------------------------------------------------| 
--3----|--3----|--2----|--20M-----------------------------------------------| 
--1----|--1----|--0----|-----24M23M22M21M20M19M18M17M16M15M14M13M12M11M10M--| 


----------|----------|----------------| 
----------|----------|----------------| 
----------|----------|----------------| 
--10-9----|--10-9----|--6-----3--2----| 
--8--7----|--10-9----|--6-----3--2----| 
--8--7----|--8--7----|--4-----1--0----| 


----------------------------------------------------|----------|----------| 
----------------------------------------------------|----------|----------| 
----------------------------------------------------|----------|----------| 
----------------------------------------------------|--3--6----|--7--9----| 
----------------------------------------------------|--3--6----|--7--9----| 
--0M-0M-0M----0M-0M-0M----0M-0M-0M----1-------------|--1--4----|--5--7----| 


----------------|----------------------------------------------------| 
----------------|----------------------------------------------------| 
----------------|----------------------------------------------------| 
--9-----10-9----|----------------------------------------------------| 
--7-----8--7----|----------------------------------------------------| 
--7-----8--7----|--0M-0M-0M----0M-0M-0M----0M-0M-0M----0M------------| 


----------|----------|----------------| 
----------|----------|----------------| 
----------|----------|----------------| 
--10-9----|--10-9----|--6-----3--2----| 
--8--7----|--10-9----|--6-----3--2----| 
--8--7----|--8--7----|--4-----1--0----| 


----------------------------------------------------|-------|--5----|-------| 
----------------------------------------------------|--0----|--5----|-------| 
----------------------------------------------------|--2----|--5----|-------| 
----------------------------------------------------|--3----|--7----|-------| 
----------------------------------------------------|--3----|--7----|-------| 
--0M-0M-0M----0M-0M-0M----0M-0M-0M----1-------------|--1----|--5----|--0----| 


-------|-------|-------|-------|-------|-------|----|----|| 
-------|-------|-------|-------|-------|-------|----|----|| 
-------|-------|-------|-------|-------|-------|----|----|| 
--3L---|--3----|--2L---|--2L---|--2L---|--2----|----|----|| 
--3L---|--3----|--2L---|--2L---|--2L---|--2----|----|----|| 
--1L---|--1----|--0L---|--0L---|--0L---|--0----|----|----|| 
	  

Search Paypal
auto scroll beats size up size down change color hide chords drawings
tab show chords e-chords YouTube Clip e-chords hide all tabs e-chords go to top tab