Rob Scallon

home > Rob Scallon

Theater Girl Tab

Rob Scallon

Difficulty: nolevelnolevel

by sabrjoao

tuner correct add songbook print version text version save to e-mail
chordsukulelecavacokeyboardtabbassdrumsharmonicsflute Guitar Pro
chords

Theater Girl

  		
                                                                              
E |----------------------------|-------|----------------------------|-------| 
C |--------------12L-----------|--12~--|--------------14L-----------|--14~--| 
G |--------9-------------------|-------|--------10------------------|-------| 
C |-----0----------------------|-------|-----0----------------------|-------| 
A |----------------------------|-------|----------------------------|-------| 
F |--0-------------------------|-------|----------------------------|-------| 
C |----------------------------|-------|--0-------------------------|-------| 
F |----------------------------|-------|----------------------------|-------| 

                                                                           
----------------------------|-------|----------------------------|-------| 
--------------16L-----------|--16~--|--------------12L-----------|--12~--| 
--------12------------------|-------|--------9-------------------|-------| 
-----0----------------------|-------|-----0----------------------|-------| 
----------------------------|-------|----------------------------|-------| 
--0-------------------------|-------|--0-------------------------|-------| 
--0-------------------------|-------|----------------------------|-------| 
--0-------------------------|-------|----------------------------|-------| 

                                                       
----------------------------|-------|-------|-------|| 
-----------14L14s-----------|--17---|--16---|-------|| 
--------10L10L10s-----------|--14---|--12~--|-------|| 
-----0----------------------|-------|-------|-------|| 
----------------------------|-------|-------|-------|| 
----------------------------|-------|-------|-------|| 
--0-------------------------|-------|-------|-------|| 
----------------------------|-------|-------|--0----|| 

                                                          
---------------------------|---------------------------|| 
----------12---------------|---------------------------|| 
-------9--------------12---|-----------10----------9---|| 
o---0--------------9-------|--------7-----------5-----o|| 
o---------------0----------|-----0-----------0--------o|| 
-0-------------------------|---------------------------|| 
-------------0-------------|--------------0------------|| 
---------------------------|--0------------------------|| 

                                                           
----------------------------|----------------------------| 
-----------12---------------|----------------------------| 
--------9--------------12---|-----------10----------9----| 
-----0--------------9-------|--------7-----------5-------| 
-----------------0----------|-----0-----------0----------| 
--0-------------------------|----------------------------| 
--------------0-------------|--------------0-------------| 
----------------------------|--0-------------------------| 

                                                           
----------------------------|----------------------------| 
----------------------------|----------------------------| 
-----------9-----------9----|-----------9-----------9----| 
--------7-----------7-------|--------7-----------7-------| 
-----7-----------7----------|-----7-----------7----------| 
--7-----------7-------------|--7-----------7-------------| 
--7-----------7-------------|--7-----------7-------------| 
--7-----------7-------------|--7-----------7-------------| 

                                                           
----------------------------|----------------------------| 
----------------------------|----------------------------| 
-----------9-----------9----|-----------9-----------9----| 
--------5-----------5-------|--------5-----------4-------| 
-----0-----------0----------|-----0-----------0----------| 
--0-----------0-------------|--0-----------0-------------| 
--0-----------0-------------|--0-----------0-------------| 
--0-----------0-------------|--0-----------0-------------| 

                                                           
----------------------------|----------------------------| 
----------------------------|----------------------------| 
-----------9-----------9----|-----------9-----------9----| 
--------7-----------7-------|--------7-----------7-------| 
-----7-----------7----------|-----7-----------7----------| 
--7-----------7-------------|--7h-9--------9h-7----------| 
--7-----------7-------------|--7-----------7-------------| 
--7-----------7-------------|--7-----------7-------------| 

                                                           
----------------------------|----------------------------| 
----------------------------|----------------------------| 
-----------9-----------9----|-----------10----------9----| 
--------5-----------5-------|--------7-----------0-------| 
-----0-----------0----------|-----0-----------0----------| 
--0-----------0-------------|--0-----------0-------------| 
--0-----------0-------------|--0-----------0-------------| 
--0-----------0-------------|--0-----------0-------------| 

                                                           
----------------------------|----------------------------| 
----------------------------|----------------------------| 
-----------9-----------9----|-----------9-----------0g---| 
--------7-----------7-------|--------7-----------7-------| 
-----7-----------7----------|-----7-----------7----------| 
--7-----------7-------------|--7h-9--------9h-7h-9s-11---| 
--7-----------7-------------|--7-----------7-------------| 
--7-----------7-------------|--7-----------7-------------| 

                                                           
----------------------------|----------------------------| 
----------------------------|----------------------------| 
-----------9-----------9----|-----------9-----------7s---| 
--------5-----------5-------|--------5-----------4-------| 
-----0-----------0----------|-----0-----------0----------| 
--0-----------0-------------|--0-----------0-------------| 
--0-----------0-------------|--0-----------0-------------| 
--0-----------0-------------|--0-----------0-------------| 

                                                           
----------------------------|----------------------------| 
----------------------------|----------------------------| 
--9--------9-----------9----|-----------9-----------9----| 
--------7-----------7-------|--------7-----------7-------| 
-----7-----------7----------|-----7-----------7----------| 
--7-----------7-------------|--7h-9--------9h-7----------| 
--7-----------7-------------|--7-----------7-------------| 
--7-----------7-------------|--7-----------7-------------| 

                                                           
----------------------------|----------------------------| 
----------------------------|----------------------------| 
-----------9-----------9----|-----------9-----------9----| 
--------5-----------5-------|--------5-----------5-------| 
-----0-----------0----------|-----0-----------0----------| 
--0-----------0-------------|--0-----------0-------------| 
--0-----------0-------------|--0-----------0-------------| 
--0-----------0-------------|--0-----------0-------------| 

                                                            
----------------------------|----------------------------|| 
----------------------------|----------------------------|| 
-----------10----------10---|--------------12~-----------|| 
--------7-----------7-------|--------9-------------------|| 
-----0-----------0----------|-----0----------------------|| 
--0-----------0-------------|--0-------------------------|| 
--0-----------0-------------|--0-------------------------|| 
--0-----------0-------------|--0-------------------------|| 

                                                          
---------------------------|---------------------------|| 
----------12---------------|---------------------------|| 
-------9--------------12---|-----------10----------9---|| 
o---0--------------9-------|--------7-----------5-----o|| 
o---------------0----------|-----0-----------0--------o|| 
-0-------------------------|---------------------------|| 
-------------0-------------|--------------0------------|| 
---------------------------|--0------------------------|| 

                                                           
----------------------------|----------------------------| 
-----------12---------------|----------------------------| 
--------9--------------12---|-----------10----------9----| 
-----0--------------9-------|--------7-----------5-------| 
-----------------0----------|-----0-----------0----------| 
--0-------------------------|----------------------------| 
--------------0-------------|--------------0-------------| 
----------------------------|--0-------------------------| 

                                                           
----------------------------|----------------------------| 
----------------------------|----------------------------| 
-----------9-----------9----|-----------9-----------9----| 
--------7-----------7-------|--------7-----------7-------| 
-----7-----------7----------|-----7-----------7----------| 
--7-----------7-------------|--7-----------7-------------| 
--7-----------7-------------|--7-----------7-------------| 
--7-----------7-------------|--7-----------7-------------| 

                                                           
----------------------------|----------------------------| 
----------------------------|----------------------------| 
-----------9-----------9----|-----------9-----------9----| 
--------5-----------5-------|--------5-----------4-------| 
-----0-----------0----------|-----0-----------0----------| 
--0-----------0-------------|--0-----------0-------------| 
--0-----------0-------------|--0-----------0-------------| 
--0-----------0-------------|--0-----------0-------------| 

                                                           
----------------------------|----------------------------| 
----------------------------|----------------------------| 
-----------9-----------9----|-----------9-----------9----| 
--------7-----------7-------|--------7-----------7-------| 
-----7-----------7----------|-----7-----------7----------| 
--7-----------7-------------|--7h-9--------9h-7----------| 
--7-----------7-------------|--7-----------7-------------| 
--7-----------7-------------|--7-----------7-------------| 

                                                           
----------------------------|----------------------------| 
----------------------------|----------------------------| 
-----------9-----------9----|-----------10----------9----| 
--------5-----------5-------|--------7-----------0-------| 
-----0-----------0----------|-----0-----------0----------| 
--0-----------0-------------|--0-----------0-------------| 
--0-----------0-------------|--0-----------0-------------| 
--0-----------0-------------|--0-----------0-------------| 

                                                           
----------------------------|----------------------------| 
----------------------------|----------------------------| 
-----------9-----------9----|-----------9-----------0g---| 
--------7-----------7-------|--------7-----------7-------| 
-----7-----------7----------|-----7-----------7----------| 
--7-----------7-------------|--7h-9--------9h-7h-9s-11---| 
--7-----------7-------------|--7-----------7-------------| 
--7-----------7-------------|--7-----------7-------------| 

                                                           
----------------------------|----------------------------| 
----------------------------|----------------------------| 
-----------9-----------9----|-----------9-----------7s---| 
--------5-----------5-------|--------5-----------4-------| 
-----0-----------0----------|-----0-----------0----------| 
--0-----------0-------------|--0-----------0-------------| 
--0-----------0-------------|--0-----------0-------------| 
--0-----------0-------------|--0-----------0-------------| 

                                                           
----------------------------|----------------------------| 
----------------------------|----------------------------| 
--9--------9-----------9----|-----------9-----------9----| 
--------7-----------7-------|--------7-----------7-------| 
-----7-----------7----------|-----7-----------7----------| 
--7-----------7-------------|--7h-9--------9h-7----------| 
--7-----------7-------------|--7-----------7-------------| 
--7-----------7-------------|--7-----------7-------------| 

                                                           
----------------------------|----------------------------| 
----------------------------|----------------------------| 
-----------9-----------9----|-----------9-----------9----| 
--------5-----------5-------|--------5-----------5-------| 
-----0-----------0----------|-----0-----------0----------| 
--0-----------0-------------|--0-----------0-------------| 
--0-----------0-------------|--0-----------0-------------| 
--0-----------0-------------|--0-----------0-------------| 

                                                           
----------------------------|----------------------------| 
----------------------------|--------------0-------------| 
-----------10----------10---|-----------10-10------------| 
--------7-----------9-------|--------9-----9-------------| 
-----0-----------0----------|-----8--------8-------------| 
--0-----------0-------------|--7-----------7-------------| 
--0-----------0-------------|--0-----------0-------------| 
--0-----------0-------------|--0-----------0-------------| 

                                                            
----------------------------------------------------------| 
--0-------------------------------------------------------| 
--10-------------------------x----------------------------| 
--9-----------------------------x-------------------------| 
--8--------------------------------x--8-------------------| 
--7-----------------7-----------------7-------------------| 
--0-----------------0-------------------------------------| 
--0-------------------------------------------------------| 

                                                            
----------------------------------------------------------| 
--0-------------------------------------------------------| 
--10-------------------------x----------------------------| 
--9-----------------------------x-------------------------| 
--8--------------------------------x--8-------------------| 
--7-----------------7-----------------7-------------------| 
--0-----------------0-------------------------------------| 
--0-------------------------------------------------------| 

                                                            
----------------------------------------------------------| 
--0-------------------------------------------------------| 
--10-------------------------x----------------------------| 
--9-----------------------------x-------------------------| 
--8--------------------------------x--8-------------------| 
--7-----------------7-----------------7-------------------| 
--0-----------------0-------------------------------------| 
--0-------------------------------------------------------| 

                                                            
----------------------------------------------------------| 
--0-------------------------------------------------------| 
--10-------------------------x----------------------------| 
--9-----------------------------x-------------------------| 
--8--------------------------------x--7-------------------| 
--7-----------------7-----------------7-------------------| 
--0-----------------0-------------------------------------| 
--0-------------------------------------------------------| 

                                                            
----------------------------------------------------------| 
--7-------------------------------------------------------| 
--9--------------------------x----------------------------| 
--7-----------------------------x-------------------------| 
--7--------------------------------x--7-------------------| 
--7-----------------7-----------------7-------------------| 
--7-----------------7-------------------------------------| 
----------------------------------------------------------| 

                                                            
----------------------------------------------------------| 
--7-------------------------------------------------------| 
--9--------------------------x----------------------------| 
--7-----------------------------x-------------------------| 
--7--------------------------------x--7-------------------| 
--7-----------------7-----------------7-------------------| 
--------------------7-------------------------------------| 
----------------------------------------------------------| 

                                                            
----------------------------------------------------------| 
--7-------------------------------------------------------| 
--9--------------------------x----------------------------| 
--7-----------------------------x-------------------------| 
--7--------------------------------x--7-------------------| 
--7-----------------7-----------------7-------------------| 
--7-----------------7-------------------------------------| 
--7-------------------------------------------------------| 

                        
----------------------| 
----------------------| 
--7h-9h-7-------------| 
-----------11h12h11---| 
----------------------| 
----------------------| 
----------------------| 
----------------------| 

                                                            
----------------------------------------------------------| 
--0-------------------------------------------------------| 
--10-------------------------x----------------------------| 
--9-----------------------------x-------------------------| 
--8--------------------------------x--8-------------------| 
--7-----------------7-----------------7-------------------| 
--0-----------------0-------------------------------------| 
--0-------------------------------------------------------| 

                                                            
----------------------------------------------------------| 
--0-------------------------------------------------------| 
--10-------------------------x----------------------------| 
--9-----------------------------x-------------------------| 
--8--------------------------------x--8-------------------| 
--7-----------------7-----------------7-------------------| 
--0-----------------0-------------------------------------| 
--0-------------------------------------------------------| 

                                                            
----------------------------------------------------------| 
--0-------------------------------------------------------| 
--10-------------------------x----------------------------| 
--9-----------------------------x-------------------------| 
--8--------------------------------x--8-------------------| 
--7-----------------7-----------------7-------------------| 
--0-----------------0-------------------------------------| 
--0-------------------------------------------------------| 

                                                            
----------------------------------------------------------| 
--0-------------------------------------------------------| 
--10-------------------------x----------------------------| 
--9-----------------------------x-------------------------| 
--8--------------------------------x--7-------------------| 
--7-----------------7-----------------7-------------------| 
--0-----------------0-------------------------------------| 
--0-------------------------------------------------------| 

                                                            
----------------------------------------------------------| 
--7-------------------------------------------------------| 
--9--------------------------x----------------------------| 
--7-----------------------------x-------------------------| 
--7--------------------------------x--7-------------------| 
--7-----------------7-----------------7-------------------| 
--7-----------------7-------------------------------------| 
----------------------------------------------------------| 

                                                            
----------------------------------------------------------| 
--7-------------------------------------------------------| 
--9--------------------------x----------------------------| 
--7-----------------------------x-------------------------| 
--7--------------------------------x--7-------------------| 
--7-----------------7-----------------7-------------------| 
--------------------7-------------------------------------| 
----------------------------------------------------------| 

                                                            
----------------------------------------------------------| 
--7-------------------------------------------------------| 
--9--------------------------x----------------------------| 
--7-----------------------------x-------------------------| 
--7--------------------------------x--7-------------------| 
--7-----------------7-----------------7-------------------| 
--7-----------------7-------------------------------------| 
--7-------------------------------------------------------| 

                        
----------------------| 
----------------------| 
--7h-9h-7-------------| 
-----------11h12h11---| 
----------------------| 
----------------------| 
----------------------| 
----------------------| 

                                                            
----------------------------------------------------------| 
--0-------------------------------------------------------| 
--10-------------------------x----------------------------| 
--9-----------------------------x-------------------------| 
--8--------------------------------x--8-------------------| 
--7-----------------7-----------------7-------------------| 
--0-----------------0-------------------------------------| 
--0-------------------------------------------------------| 

                                                            
----------------------------------------------------------| 
--0-------------------------------------------------------| 
--10-------------------------x----------------------------| 
--9-----------------------------x-------------------------| 
--8--------------------------------x--8-------------------| 
--7-----------------7-----------------7-------------------| 
--0-----------------0-------------------------------------| 
--0-------------------------------------------------------| 

                                                            
--------------------------------------12------------------| 
--0-----------------------------------12------------------| 
--10-------------------------x--------12------------------| 
--9-----------------------------x-----9-------------------| 
--8--------------------------------x--8-------------------| 
--7-----------------7-----------------7-------------------| 
--0-----------------0-------------------------------------| 
--0-------------------------------------------------------| 

                                                            
--12------------------------------------------------------| 
--12------------------------------------------------------| 
--12-------------------------x----------------------------| 
--9-----------------------------x-------------------------| 
--8--------------------------------x--7-------------------| 
--7-----------------7-----------------7-------------------| 
--0-----------------0-------------------------------------| 
--0-------------------------------------------------------| 

                                                            
--12------------------------------------------------------| 
--12------------------------------------------------------| 
--12-------------------------x----------------------------| 
--7-----------------------------x-------------------------| 
--7--------------------------------x--7-------------------| 
--7-----------------7-----------------7-------------------| 
--7-----------------7-------------------------------------| 
----------------------------------------------------------| 

                                                            
--12------------------------------------------------------| 
--12------------------------------------------------------| 
--12-------------------------x----------------------------| 
--7h-------9--------9-----------x-------------------------| 
--7-----------------7--------------x--7-------------------| 
--7-----------------7-----------------7-------------------| 
--------------------7-------------------------------------| 
----------------------------------------------------------| 

                                                            
--12------------------------------------------------------| 
--12------------------------------------------------------| 
--12-------------------------x----------------------------| 
--7-----------------7--------9--7-------------------------| 
--7-----------------7--------------x--7-------------------| 
--7-----------------7-----------------7-------------------| 
--7-----------------7-------------------------------------| 
--7-------------------------------------------------------| 

                        
----------------------| 
----------------------| 
----------------------| 
--7h-9h-7-------------| 
----------------------| 
----------------------| 
-----------11h12h11---| 
----------------------| 

                                                            
----------------------------------------------------------| 
--0-------------------------------------------------------| 
--10-------------------------x----------------------------| 
--9-----------------------------x-------------------------| 
--8--------------------------------x--8-------------------| 
--7-----------------7-----------------7-------------------| 
--0-----------------0-------------------------------------| 
--0-------------------------------------------------------| 

                                                            
----------------------------------------------------------| 
--0-------------------------------------------------------| 
--10-------------------------x----------------------------| 
--9-----------------------------x-------------------------| 
--8--------------------------------x--8-------------------| 
--7-----------------7-----------------7-------------------| 
--0-----------------0-------------------------------------| 
--0-------------------------------------------------------| 

                                                            
--------------------------------------12------------------| 
--0-----------------------------------12------------------| 
--10-------------------------x--------12------------------| 
--9-----------------------------x-----9-------------------| 
--8--------------------------------x--8-------------------| 
--7-----------------7-----------------7-------------------| 
--0-----------------0-------------------------------------| 
--0-------------------------------------------------------| 

                                                            
--12------------------------------------------------------| 
--12------------------------------------------------------| 
--12-------------------------x----------------------------| 
--9-----------------------------x-------------------------| 
--8--------------------------------x--7-------------------| 
--7-----------------7-----------------7-------------------| 
--0-----------------0-------------------------------------| 
--0-------------------------------------------------------| 

                                                            
--12------------------------------------------------------| 
--12------------------------------------------------------| 
--12-------------------------x----------------------------| 
--7-----------------------------x-------------------------| 
--7--------------------------------x--7-------------------| 
--7-----------------7-----------------7-------------------| 
--7-----------------7-------------------------------------| 
----------------------------------------------------------| 

                                                            
--12------------------------------------------------------| 
--12------------------------------------------------------| 
--12-------------------------x----------------------------| 
--7-----------------------------x-------------------------| 
--7--------------------------------x--7-------------------| 
--7-----------------7-----------------7-------------------| 
--7-----------------7-------------------------------------| 
----------------------------------------------------------| 

                                                            
--12------------------------------------------------------| 
--12------------------------------------------------------| 
--12-------------------------x----------------------------| 
--7-----------------------------x-------------------------| 
--7--------------------------------x--7-------------------| 
--7-----------------7-----------------7-------------------| 
--7-----------------7-------------------------------------| 
----------------------------------------------------------| 

                                                            
--12------------------------------------------------------| 
--12------------------------------------------------------| 
--12-------------------------x----------------------------| 
--7-----------------------------x-------------------------| 
--7--------------------------------x--7-------------------| 
--7-----------------7-----------------7-------------------| 
--7-----------------7-------------------------------------| 
----------------------------------------------------------| 

                                                            
--12------------------------------------------------------| 
--12------------------------------------------------------| 
--12-------------------------x----------------------------| 
--7-----------------------------x-------------------------| 
--7--------------------------------x--7-------------------| 
--7-----------------7-----------------7-------------------| 
--7-----------------7-------------------------------------| 
----------------------------------------------------------| 

                                                            
--12------------------------------------------------------| 
--12------------------------------------------------------| 
--12-------------------------x----------------------------| 
--7-----------------------------x-------------------------| 
--7--------------------------------x--7-------------------| 
--7-----------------7-----------------7-------------------| 
--7-----------------7-------------------------------------| 
----------------------------------------------------------| 

                                                            
--12------------------------------------------------------| 
--12------------------------------------------------------| 
--12-------------------------x----------------------------| 
--7-----------------------------x-------------------------| 
--7--------------------------------x--7-------------------| 
--7-----------------7-----------------7-------------------| 
--7-----------------7-------------------------------------| 
----------------------------------------------------------| 

                                                             ^ 
--12------------------------------------------------------|--12L--|--12L--| 
--12------------------------------------------------------|--12L--|--12L--| 
--12-------------------------x----------------------------|--12L--|--12L--| 
--7-----------------------------x-------------------------|--7L---|--7L---| 
--7--------------------------------x--7-------------------|--7L---|--7L---| 
--7-----------------7-----------------7-------------------|--7L---|--7L---| 
--7-----------------7-------------------------------------|--7L---|--7L---| 
----------------------------------------------------------|--7L---|--7L---| 


--12---|| 
--12---|| 
--12---|| 
--7----|| 
--7----|| 
--7----|| 
--7----|| 
--7----|| 
	  

Search Paypal
auto scroll beats size up size down change color hide chords drawings
tab show chords e-chords YouTube Clip e-chords hide all tabs e-chords go to top tab