Rob Scallon

home > Rob Scallon

Metal Mad Libs 3 Tab

Rob Scallon

Difficulty: nolevelnolevel

by hebealmeida

tuner correct add songbook print version text version save to e-mail
chordsukulelecavacokeyboardtabbassdrumsharmonicsflute Guitar Pro
chords

Metal Mad Libs 3

  		 

Legend 
L - tied note 
x - dead note 
h - hammer on/pull off 
b - bend 
s - slide 
~ - vibrato 
g - ghost note 
> - accentuated note 
t - trill 
M - palm mute 
. - staccato 
P - popping (bass) 
S - slapping (bass) 
+ - tapping 
W - wide vibrato 
< - fade in 
w - whammy bar 
= - tremolo picking 
v - brush up 
^ - brush down 
V - pick stroke up 
n - pick stroke down 


E |----------------------------------------------------| 
B |----------------------------------------------------| 
G |----------------------------------------------------| 
D |----------------------------------------------------| 
A |--2-----------2M----2M------------------------------| 
E |--2-----------2M----2M----2--3--2-----2-----2--3----| 
B |--0-----------0M----0M-------------4-----4----------| 
F#|----------------------------------------------------| 

  W 
--------------------------------------------------------------------------------| 
--------------------------------------------------------------------------------| 
--------------------------------------------------------------------------------| 
--------------------------------------------------------------------------------| 
--------------------------------------------------------------------------------| 
--3-----------------3--2--------------3-----------------------2-----------3-----| 
--------------------------0-----------1-----------------------0-----------1-----| 
--------------------------------------------------------------------------------| 


--------------------|----------------------------------------------------| 
--------------------|----------------------------------------------------| 
--------------------|----------------------------------------------------| 
--------------------|----------------------------------------------------| 
--------------------|--2-----------2M----2M------------------------------| 
------6-------------|--2-----------2M----2M----2--3--2-----2-----2--3----| 
------4-------------|--0-----------0M----0M-------------4-----4----------| 
--------------------|----------------------------------------------------| 

  W 
--------------------------------------------------------------------------------| 
--------------------------------------------------------------------------------| 
--------------------------------------------------------------------------------| 
--------------------------------------------------------------------------------| 
--------------------------------------------------------------------------------| 
--3-----------------------------------------------------3--------2--------------| 
--------------------------------------------------------------------------0-----| 
--------------------------------------------------------------------------------| 


--------------------------------------------------------------------------------| 
--------------------------------------------------------------------------------| 
--------------------------------------------------------------------------------| 
--------------------------------------------------------------------------------| 
--------------------------------------------------------------------------------| 
------------------------------3-------------------------------------------------| 
------------------------------1-------------------------------------------------| 
--------------------------------------------------------------------------------| 


--------------------------------------------------------------------------------| 
--------------------------------------------------------------------------------| 
--------------------------------------------------------------------------------| 
--------------------------------------------------------------------------------| 
----------------------------------------------------------2M--------------------| 
----------------------2-----------------------------------2M--------------------| 
----------------------0-----------------------------------0M--------------------| 
--------------------------------------------------------------------------------| 


----------------------------------------------------| 
----------------------------------------------------| 
----------------------------------------------------| 
----------------------------------------------------| 
--2M----------------------2M------------------------| 
--2M----------------------2M------------------------| 
--0M----------------------0M------------------------| 
----------------------------------------------------| 


----------------------------------------------------| 
----------------------------------------------------| 
----------------------------------------------------| 
----------------------------------------------------| 
--2-----------2M----2M------------------------------| 
--2-----------2M----2M----2--3--2-----2-----2--3----| 
--0-----------0M----0M-------------4-----4----------| 
----------------------------------------------------| 

  W 
--------------------------------------------------------------------------------| 
--------------------------------------------------------------------------------| 
--------------------------------------------------------------------------------| 
--------------------------------------------------------------------------------| 
--------------------------------------------------------------------------------| 
--3-----------------3--2--------------3-----------------------2-----------3-----| 
--------------------------0-----------1-----------------------0-----------1-----| 
--------------------------------------------------------------------------------| 


--------------------|----------------------------------------------------| 
--------------------|----------------------------------------------------| 
--------------------|----------------------------------------------------| 
--------------------|----------------------------------------------------| 
--------------------|--2-----------2M----2M------------------------------| 
------6-------------|--2-----------2M----2M----2--3--2--0--2b------------| 
------4-------------|--0-----------0M----0M------------------------------| 
--------------------|----------------------------------------------------| 


----------------------------------------------------------------------------| 
----------------------------------------------------------------------------| 
----------------------------------------------------------------------------| 
----------------------------------------------------------------------------| 
--2M-------2M-------2M-------2M---------------------------------------------| 
--2M-------2M-------2M-------2M-------6M----6M----6M----6M----6M----6M------| 
--0M-------0M-------0M-------0M-------6M----6M----6M----6M----6M----6M------| 
--------------------------------------4M----4M----4M----4M----4M----4M------| 

        =     =     =                =           = 
----------------------------|----------------------------| 
----------------------------|----------------------------| 
----------------------------|----------------------------| 
----------------------------|----------------------------| 
----------------------------|----------------------------| 
--------2-----3-----2-------|--------2-----------3-------| 
----------------------------|----------------------------| 
--0M-0M---------------------|--0M-0M-------0M-0M---------| 

        =     =     =                =           = 
----------------------------|----------------------------| 
----------------------------|----------------------------| 
----------------------------|----------------------------| 
----------------------------|----------------------------| 
----------------------------|----------------------------| 
----------------------------|----------------------------| 
--------2-----3-----2-------|--------2-----------3-------| 
--1M-1M---------------------|--1M-1M-------1M-1M---------| 

        =     =     =                =           = 
----------------------------|----------------------------| 
----------------------------|----------------------------| 
----------------------------|----------------------------| 
----------------------------|----------------------------| 
----------------------------|----------------------------| 
--------2-----3-----2-------|--------2-----------3-------| 
----------------------------|----------------------------| 
--0M-0M---------------------|--0M-0M-------0M-0M---------| 

        =     =     =                           =     =     = 
----------------------------|----------|----------------------------| 
----------------------------|----------|----------------------------| 
----------------------------|----------|----------------------------| 
----------------------------|----------|----------------------------| 
----------------------------|----------|----------------------------| 
----------------------------|--3--6s---|--------2-----3-----2-------| 
--------2-----3-----2-------|--3--6s---|----------------------------| 
--1M-1M---------------------|--1--4s---|--0M-0M---------------------| 

        =           =                =     =     = 
----------------------------|----------------------------| 
----------------------------|----------------------------| 
----------------------------|----------------------------| 
----------------------------|----------------------------| 
----------------------------|----------------------------| 
--------2-----------3-------|----------------------------| 
----------------------------|--------2-----3-----2-------| 
--0M-0M-------0M-0M---------|--1M-1M---------------------| 

        =           =                =     =     = 
----------------------------|----------------------------| 
----------------------------|----------------------------| 
----------------------------|----------------------------| 
----------------------------|----------------------------| 
----------------------------|----------------------------| 
----------------------------|--------2-----3-----2-------| 
--------2-----------3-------|----------------------------| 
--1M-1M-------1M-1M---------|--0M-0M---------------------| 

        =           =                =     =     = 
----------------------------|----------------------------|----------| 
----------------------------|----------------------------|----------| 
----------------------------|----------------------------|----------| 
----------------------------|----------------------------|----------| 
----------------------------|----------------------------|----------| 
--------2-----------3-------|----------------------------|--3--6----| 
----------------------------|--------2-----3-----2-------|--3--6----| 
--0M-0M-------0M-0M---------|--1M-1M---------------------|--1--4----| 


----------------------|-------|----------------------|----------| 
----------------------|-------|----------------------|----------| 
----------------------|-------|----------------------|----------| 
----------------------|-------|----------------------|----------| 
----------------------|-------|----------------------|----------| 
--7--------10-9M-7M---|--6----|--7--------10-9M------|--3--6----| 
--7--------10-9M-7M---|--6----|--7--------10-9M-0M---|--3--6----| 
--5--------8--7M-5M---|--4----|--5--------8--7M-0M---|--1--4----| 


----------------------|-------|----------------------|----------| 
----------------------|-------|----------------------|----------| 
----------------------|-------|----------------------|----------| 
----------------------|-------|----------------------|----------| 
----------------------|-------|----------------------|----------| 
--7--------10-9M-7M---|--6----|--7--------10-9M------|--3--6----| 
--7--------10-9M-7M---|--6----|--7--------10-9M-0M---|--3--6----| 
--5--------8--7M-5M---|--4----|--5--------8--7M-0M---|--1--4----| 

        =                            = 
----------------------------|----------------------------| 
----------------------------|----------------------------| 
----------------------------|----------------------------| 
----------------------------|----------------------------| 
----------------------------|----------------------------| 
----------------------------|----------------------------| 
----------------------------|----------------------------| 
--0M-0M-5-------------------|--0M-0M-4-------------------| 

        =                            =           = 
----------------------------|----------------------------| 
----------------------------|----------------------------| 
----------------------------|----------------------------| 
----------------------------|----------------------------| 
----------------------------|----------------------------| 
----------------------------|----------------------------| 
----------------------------|----------------------------| 
--0M-0M-1-------------------|--0M-0M-1-----0M-0M-4-------| 

              = 
----------------------------------------------------| 
----------------------------------------------------| 
----------------------------------------------------| 
----------------------------------------------------| 
----------------------------------------------------| 
----------------------------------------------------| 
--------------------------------------7--8--7-------| 
--0M----0M----5--------------------------------8----| 

        =                            = 
----------------------------|----------------------------| 
----------------------------|----------------------------| 
----------------------------|----------------------------| 
----------------------------|----------------------------| 
----------------------------|----------------------------| 
----------------------------|----------------------------| 
----------------------------|----------------------------| 
--0M-0M-4-------------------|--0M-0M-1-------------------| 

        =           =                = 
----------------------------|----------------------------| 
----------------------------|----------------------------| 
----------------------------|----------------------------| 
----------------------------|----------------------------| 
----------------------------|----------------------------| 
----------------------------|----------------------------| 
----------------------------|----------------------------| 
--0M-0M-1-----0M-0M-4-------|--0M-0M-5-------------------| 

        =                            = 
----------------------------|----------------------------| 
----------------------------|----------------------------| 
----------------------------|----------------------------| 
----------------------------|----------------------------| 
----------------------------|----------------------------| 
----------------------------|----------------------------| 
----------------------------|----------------------------| 
--0M-0M-4-------------------|--0M-0M-1-------------------| 

        =           = 
----------------------------| 
----------------------------| 
----------------------------| 
----------------------------| 
----------------------------| 
----------------------------| 
----------------------------| 
--0M-0M-1-----0M-0M-4-------| 

              = 
----------------------------------------------------| 
----------------------------------------------------| 
----------------------------------------------------| 
----------------------------------------------------| 
----------------------------------------------------| 
----------------------------------------------------| 
--------------------------------------7--8--7-------| 
--0M----0M----5--------------------------------8----| 

        =                            = 
----------------------------|----------------------------| 
----------------------------|----------------------------| 
----------------------------|----------------------------| 
----------------------------|----------------------------| 
----------------------------|----------------------------| 
----------------------------|----------------------------| 
--------------------7s------|----------------------------| 
--0M-0M-4-------------------|--0M-0M-1-------------------| 

        =           = 
----------------------------| 
----------------------------| 
----------------------------| 
----------------------------| 
----------------------------| 
----------------------------| 
----------------------------| 
--0M-0M-1-----0M-0M-4-------| 


----------------------------------------------------| 
----------------------------------------------------| 
----------------------------------------------------| 
----------------------------------------------------| 
--2-----------2M----2M------------------------------| 
--2-----------2M----2M----2--3--2-----2-----2--3----| 
--0-----------0M----0M-------------4-----4----------| 
----------------------------------------------------| 

  W 
--------------------------------------------------------------------------------| 
--------------------------------------------------------------------------------| 
--------------------------------------------------------------------------------| 
--------------------------------------------------------------------------------| 
--------------------------------------------------------------------------------| 
--3-----------------3--2--------------3-----------------------2-----------3-----| 
--------------------------0-----------1-----------------------0-----------1-----| 
--------------------------------------------------------------------------------| 


--------------------|----------------------------------------------------| 
--------------------|----------------------------------------------------| 
--------------------|----------------------------------------------------| 
--------------------|----------------------------------------------------| 
--------------------|--2-----------2M----2M------------------------------| 
------6-------------|--2-----------2M----2M----2--3--2-----2-----2--3----| 
------4-------------|--0-----------0M----0M-------------4-----4----------| 
--------------------|----------------------------------------------------| 


----------------------------------------------------------------------------| 
----------------------------------------------------------------------------| 
----------------------------------------------------------------------------| 
----------------------------------------------------------------------------| 
----------------------------------------------------------------------------| 
-----------7--10-7-----------6--9--6----------------------------------------| 
----------------------------------------------------------------------------| 
--0M-0M-0M----------0M-0M-0M----------0M-0M-0M-5--8--5--0M-0M-0M-4--7--4----| 


----------------------------------------------------| 
----------------------------------------------------| 
----------------------------------------------------| 
----------------------------------------------------| 
--2-----------2M----2M------------------------------| 
--2-----------2M----2M----2--3--2-----2-----2--3----| 
--0-----------0M----0M-------------4-----4----------| 
----------------------------------------------------| 

  W 
--------------------------------------------------------------------------------| 
--------------------------------------------------------------------------------| 
--------------------------------------------------------------------------------| 
--------------------------------------------------------------------------------| 
--------------------------------------------------------------------------------| 
--3-----------------3--2--------------3-----------------------2-----------3-----| 
--------------------------0-----------1-----------------------0-----------1-----| 
--------------------------------------------------------------------------------| 


--------------------|----------------------------------------------------| 
--------------------|----------------------------------------------------| 
--------------------|----------------------------------------------------| 
--------------------|----------------------------------------------------| 
--------------------|--2-----------2M----2M------------------------------| 
------6-------------|--2-----------2M----2M----2--3--2--0--2b------------| 
------4-------------|--0-----------0M----0M------------------------------| 
--------------------|----------------------------------------------------| 


----------------------------------------------------------------------------| 
----------------------------------------------------------------------------| 
----------------------------------------------------------------------------| 
----------------------------------------------------------------------------| 
----------------------------------------------------------------------------| 
----------------------------------------------------------------------------| 
----------------------------------------------------------------------------| 
--0M-0M-0M-5--8--5--0M-0M-0M-4--7--4--0M-0M-0M-1--4--1--0M-0M-0M-4--7--4----| 


----------------------------------------------------------------------------| 
----------------------------------------------------------------------------| 
----------------------------------------------------------------------------| 
----------------------------------------------------------------------------| 
----------------------------------------------------------------------------| 
----------------------------------------------------------------------------| 
-----------7--8--7-----------7--8--7----------------------------------------| 
--0M-0M-0M----------0M-0M-0M----------0M-0M-0M-5--8--5--0M-0M-0M-4--7--4----| 


----------------------------------------------------------------------------| 
----------------------------------------------------------------------------| 
----------------------------------------------------------------------------| 
----------------------------------------------------------------------------| 
----------------------------------------------------------------------------| 
----------------------------------------------------------------------------| 
-----------7--8--7-----------7--8--7----------------------------------------| 
--0M-0M-0M----------0M-0M-0M----------0M-0M-0M-5--8--5--0M-0M-0M-4--7--4----| 


----------------------------------------------------------------------------| 
----------------------------------------------------------------------------| 
----------------------------------------------------------------------------| 
----------------------------------------------------------------------------| 
----------------------------------------------------------------------------| 
----------------------------------------------------------------------------| 
----------------------------------------------------------------------------| 
--0M-0M-0M-1--4--1--0M-0M-0M-1--4--1--0M-0M-0M-1--4--1--0M-0M-0M-4--7--4----| 


----------------------------------------------------------------------------| 
----------------------------------------------------------------------------| 
----------------------------------------------------------------------------| 
----------------------------------------------------------------------------| 
----------------------------------------------------------------------------| 
----------------------------------------------------------------------------| 
----------------------------------------------------------------------------| 
--0M-0M-0M-1--4--1--0M-0M-0M-1--4--1--0M-0M-0M-5--8--5--0M-0M-0M-4--7--4----| 


----------------------------------------------------------------------------| 
----------------------------------------------------------------------------| 
----------------------------------------------------------------------------| 
----------------------------------------------------------------------------| 
----------------------------------------------------------------------------| 
----------------------------------------------------------------------------| 
-----------7--8--7-----------7--8--7----------------------------------------| 
--0M-0M-0M----------0M-0M-0M----------0M-0M-0M-5--8--5--0M-0M-0M-4--7--4----| 


----------------------------------------------------------------------------| 
----------------------------------------------------------------------------| 
----------------------------------------------------------------------------| 
----------------------------------------------------------------------------| 
----------------------------------------------------------------------------| 
----------------------------------------------------------------------------| 
-----------7--8--7-----------7--8--7----------------------------------------| 
--0M-0M-0M----------0M-0M-0M----------0M-0M-0M-5--8--5--0M-0M-0M-4--7--4----| 


----------------------------------------------------------------------------| 
----------------------------------------------------------------------------| 
----------------------------------------------------------------------------| 
----------------------------------------------------------------------------| 
----------------------------------------------------------------------------| 
----------------------------------------------------------------------------| 
----------------------------------------------------------------------------| 
--0M-0M-0M-1--4--1--0M-0M-0M-1--4--1--0M-0M-0M-1--4--1--0M-0M-0M-4--7--4----| 


----------------------------------------------------------------------------| 
----------------------------------------------------------------------------| 
----------------------------------------------------------------------------| 
----------------------------------------------------------------------------| 
----------------------------------------------------------------------------| 
----------------------------------------------------------------------------| 
----------------------------------------------------------------------------| 
--0M-0M-0M-1--4--1--0M-0M-0M-1--4--1--0M-0M-0M-5--8--5--0M-0M-0M-4--7--4----| 

        =     =     =                =           = 
----------------------------|----------------------------| 
----------------------------|----------------------------| 
----------------------------|----------------------------| 
----------------------------|----------------------------| 
----------------------------|----------------------------| 
--------2-----3-----2-------|--------2-----------3-------| 
----------------------------|----------------------------| 
--0M-0M---------------------|--0M-0M-------0M-0M---------| 

        =     =     =                = 
----------------------------|----------------------------| 
----------------------------|----------------------------| 
----------------------------|----------------------------| 
----------------------------|----------------------------| 
----------------------------|----------------------------| 
----------------------------|--------------6s------------| 
--------2-----3-----2-------|--------2-----6s------------| 
--1M-1M---------------------|--1M-1M-------4s------------| 

        =     =     =                =           = 
----------------------------|----------------------------| 
----------------------------|----------------------------| 
----------------------------|----------------------------| 
----------------------------|----------------------------| 
----------------------------|----------------------------| 
--------2-----3-----2-------|--------2-----------3-------| 
----------------------------|----------------------------| 
--0M-0M---------------------|--0M-0M-------0M-0M---------| 

        =     =     =                           =     =     = 
----------------------------|----------|----------------------------| 
----------------------------|----------|----------------------------| 
----------------------------|----------|----------------------------| 
----------------------------|----------|----------------------------| 
----------------------------|----------|----------------------------| 
----------------------------|--3--6s---|--------2-----3-----2-------| 
--------2-----3-----2-------|--3--6s---|----------------------------| 
--1M-1M---------------------|--1--4s---|--0M-0M---------------------| 

        =           =                =     =     = 
----------------------------|----------------------------| 
----------------------------|----------------------------| 
----------------------------|----------------------------| 
----------------------------|----------------------------| 
----------------------------|----------------------------| 
--------2-----------3-------|----------------------------| 
----------------------------|--------2-----3-----2-------| 
--0M-0M-------0M-0M---------|--1M-1M---------------------| 

        =           =                =     =     = 
----------------------------|----------------------------| 
----------------------------|----------------------------| 
----------------------------|----------------------------| 
----------------------------|----------------------------| 
----------------------------|----------------------------| 
----------------------------|--------2-----3-----2-------| 
--------2-----------3-------|----------------------------| 
--1M-1M-------1M-1M---------|--0M-0M---------------------| 

        =           =                =     =     = 
----------------------------|----------------------------| 
----------------------------|----------------------------| 
----------------------------|----------------------------| 
----------------------------|----------------------------| 
----------------------------|----------------------------| 
--------2-----------3-------|----------------------------| 
----------------------------|--------2-----3-----2-------| 
--0M-0M-------0M-0M---------|--1M-1M---------------------| 


----------------------------------------------------|----------|----|----|----| 
----------------------------------------------------|----------|----|----|----| 
----------------------------------------------------|----------|----|----|----| 
----------------------------------------------------|----------|----|----|----| 
----------------------------------------------------|----------|----|----|----| 
----------------------------------------------------|--2M-2M---|----|----|----| 
--------------7-------------------------------------|--2M-2M---|----|----|----| 
--0M----0M----------------0M----0M----5--8--5--0----|--0M-0M---|----|----|----| 


----|----|----|----|----|----|----|----|| 
----|----|----|----|----|----|----|----|| 
----|----|----|----|----|----|----|----|| 
----|----|----|----|----|----|----|----|| 
----|----|----|----|----|----|----|----|| 
----|----|----|----|----|----|----|----|| 
----|----|----|----|----|----|----|----|| 
----|----|----|----|----|----|----|----|| 



Solo 


Title: Metal Mad Libs 3 
Tempo = 125 
Electric Guitar 

Legend 
L - tied note 
x - dead note 
h - hammer on/pull off 
b - bend 
s - slide 
~ - vibrato 
g - ghost note 
> - accentuated note 
t - trill 
M - palm mute 
. - staccato 
P - popping (bass) 
S - slapping (bass) 
+ - tapping 
W - wide vibrato 
< - fade in 
w - whammy bar 
= - tremolo picking 
v - brush up 
^ - brush down 
V - pick stroke up 
n - pick stroke down 


E |----|----|----|----|----|----|----|----|----|----|----|----|----|----|----| 
B |----|----|----|----|----|----|----|----|----|----|----|----|----|----|----| 
G |----|----|----|----|----|----|----|----|----|----|----|----|----|----|----| 
D |----|----|----|----|----|----|----|----|----|----|----|----|----|----|----| 
A |----|----|----|----|----|----|----|----|----|----|----|----|----|----|----| 
E |----|----|----|----|----|----|----|----|----|----|----|----|----|----|----| 
B |----|----|----|----|----|----|----|----|----|----|----|----|----|----|----| 
F#|----|----|----|----|----|----|----|----|----|----|----|----|----|----|----| 


----|----|----|----|----|----|----|----|----------|----------------------| 
----|----|----|----|----|----|----|----|----------|----------------------| 
----|----|----|----|----|----|----|----|----------|----------------------| 
----|----|----|----|----|----|----|----|--5--8----|--9~-------12-11-9----| 
----|----|----|----|----|----|----|----|----------|----------------------| 
----|----|----|----|----|----|----|----|----------|----------------------| 
----|----|----|----|----|----|----|----|----------|----------------------| 
----|----|----|----|----|----|----|----|----------|----------------------| 


----------------------------------------------------------------------------| 
----------------------------------------------------------------------------| 
----------------------------------------------------------------------------| 
--8~-------------------------8--9--11-12~------------------------0--11-12---| 
----------------------------------------------------------------------------| 
----------------------------------------------------------------------------| 
----------------------------------------------------------------------------| 
----------------------------------------------------------------------------| 


----------------------| 
----------------------| 
----------------------| 
--16~------12-11-9----| 
----------------------| 
----------------------| 
----------------------| 
----------------------| 


----------------------------------------------------------------------------| 
----------------------------------------------------------------------------| 
----------------------------------------------------------------------------| 
--17~------------------------16-------16~------------------------0--16-17---| 
----------------------------------------------------------------------------| 
----------------------------------------------------------------------------| 
----------------------------------------------------------------------------| 
----------------------------------------------------------------------------| 

  W                                   W 
----------------------------------------------------------------------------| 
----------------------------------------------------------------------------| 
-----------------------------------------------------------------0--15-16---| 
--24-------------------------0--16-17-23------------------------------------| 
----------------------------------------------------------------------------| 
----------------------------------------------------------------------------| 
----------------------------------------------------------------------------| 
----------------------------------------------------------------------------| 

  W                                   W 
----------------------------------------------------------------------------| 
-----------------------------------------------------------------0--12-15---| 
--24-------------------------0--15-16-23------------------------------------| 
----------------------------------------------------------------------------| 
----------------------------------------------------------------------------| 
----------------------------------------------------------------------------| 
----------------------------------------------------------------------------| 
----------------------------------------------------------------------------| 


----------------------------------------------------------------------------| 
--24-15-12-0--12-15-24-15-12-0--12-15-24-15-12-0--12-15-24-15-12-0--12-15---| 
----------------------------------------------------------------------------| 
----------------------------------------------------------------------------| 
----------------------------------------------------------------------------| 
----------------------------------------------------------------------------| 
----------------------------------------------------------------------------| 
----------------------------------------------------------------------------| 


----------------------------------------------------------------------------| 
--23-15-12-0--12-15-23-15-12-0--12-15-23-15-12-0--12-15-23-15-12-0--12-15---| 
----------------------------------------------------------------------------| 
----------------------------------------------------------------------------| 
----------------------------------------------------------------------------| 
----------------------------------------------------------------------------| 
----------------------------------------------------------------------------| 
----------------------------------------------------------------------------| 


-------|----|----|----|----|----|----|----|----|----|----|----|----|----|----| 
--24~--|----|----|----|----|----|----|----|----|----|----|----|----|----|----| 
-------|----|----|----|----|----|----|----|----|----|----|----|----|----|----| 
-------|----|----|----|----|----|----|----|----|----|----|----|----|----|----| 
-------|----|----|----|----|----|----|----|----|----|----|----|----|----|----| 
-------|----|----|----|----|----|----|----|----|----|----|----|----|----|----| 
-------|----|----|----|----|----|----|----|----|----|----|----|----|----|----| 
-------|----|----|----|----|----|----|----|----|----|----|----|----|----|----| 
	  

Search Paypal
auto scroll beats size up size down change color hide chords drawings
tab show chords e-chords YouTube Clip e-chords hide all tabs e-chords go to top tab