Rob Scallon

home > Rob Scallon

Unconditional Tab

Rob Scallon

Difficulty: nolevelnolevel

by fernsantana

tuner correct add songbook print version text version save to e-mail
chordsukulelecavacokeyboardtabbassdrumsharmonicsflute Guitar Pro
chords

Unconditional

  		                                                              
D |----------------------------|----------------------------| 
A |--21----21----21----21------|--21----21----21----22------| 
F |----------------------------|----------------------------| 
C |--11L11-11L11-11L11-11L11---|--11L11-11L11-11L11-11L11---| 
G |--12L12-12L12-12L12-12L12---|--12L12-12L12-12L12-12L12---| 
D |--12L12-12L12-12L12-12L12---|--12L12-12L12-12L12-12L12---| 

                                                           
----------------------------|----------------------------| 
--21----21----21----21------|--21----21----21----19------| 
----------------------------|----------------------------| 
--11L11-11L11-11L11-11L11---|--11L11-11L11-11L11-11L11---| 
--12L12-12L12-12L12-12L12---|--12L12-12L12-12L12-12L12---| 
--12L12-12L12-12L12-12L12---|--12L12-12L12-12L12-12L12---| 

                                                           
----------------------------|----------------------------| 
--21----21----21----21------|--21----21----21----22------| 
----------------------------|----------------------------| 
--6L-6--6L-6--6L-6--6L-6----|--6L-6--6L-6--6L-6--6L-6----| 
--7L-7--7L-7--7L-7--7L-7----|--7L-7--7L-7--7L-7--7L-7----| 
--7L-7--7L-7--7L-7--7L-7----|--7L-7--7L-7--7L-7--7L-7----| 

                                                           
----------------------------|----------------------------| 
--21----21----21----21------|--21----21----21----19------| 
----------------------------|----------------------------| 
--6L-6--6L-6--6L-6--6L-6----|--6L-6--6L-6--6L-6--6L-6----| 
--7L-7--7L-7--7L-7--7L-7----|--7L-7--7L-7--7L-7--7L-7----| 
--7L-7--7L-7--7L-7--7L-7----|--7L-7--7L-7--7L-7--7L-7----| 

                                                           
----------------------------|----------------------------| 
--21----21----21----21------|--21----21----21----22------| 
----------------------------|----------------------------| 
--11L11-11L11-11L11-11L11---|--11L11-11L11-11L11-11L11---| 
--12L12-12L12-12L12-12L12---|--12L12-12L12-12L12-12L12---| 
--12L12-12L12-12----0h-12---|--12L12-12----------12L12---| 

                                                           
----------------------------|----------------------------| 
--21----21----21----21------|--21----21----21----19------| 
--13------------------------|----------------------------| 
--11L11-11L11-11L11-11L11---|--11L11-11L11-11L11-11L11---| 
--12L12-12L12-12L12-12L12---|--12L12-12L12-12L12-12L12---| 
--12L12-12L12-12L12-12L12---|--12L12-12L12-12L12-12L12---| 

                                                           
----------------------------|----------------------------| 
--19----19----19----19------|--19----19----19----21------| 
----------------------------|----------------------------| 
--6L-6--6L-6--6L-6--6L-6----|--6L-6--6L-6--6L-6--6L-6----| 
--7L-7--7L-7--7L-7--7L-7----|--7L-7--7L-7--7L-7--7L-7----| 
--7L-7--7L-7--7L-7--7L-7----|--7L-7--7L-7--7L-7--7L-7----| 

                                                           
----------------------------|----------------------------| 
--21----21----21----16------|--16----16----16s---17------| 
----------------------------|--------------8-------------| 
--6L-6--6L-6--6L-6--6L-6----|--6L-6--6L-6--6-------------| 
--7L-7--7L-7--7L-7--7L-7----|--7L-7--7L-7----------------| 
--7L-7--7L-7--7L-7--7L-7----|--7L-7--7L-7--7-------------| 

                                                           
----------------------------|----------------------------| 
--0-----19----------21-19---|--------------0--------0----| 
--13-------18-13------------|--21----------21s---8--8----| 
--11------------------------|--------11----11s---6--6----| 
--12------------------------|--------0-----0-----0--0----| 
--12-------------12---------|-----12-12----12----7--7----| 

                                                           
----------------------------|----------------------------| 
--0-----17------------------|--------------0-------------| 
--8--------16-8-----16-14---|--13----13----13-------13---| 
--6-------------------------|--------6-----6-----11-11---| 
--0-------------------------|--------0-----0-----0--0----| 
--7--------------7----------|-----7--7-----7-----0-------| 

                                                                            
----------------------------|----------------------------|----------------| 
--0-----19----------21-19---|--------------0-------------|----------------| 
--13-------18-13------------|--21----------21----21------|--21b21b21b20b--| 
--11------------------------|--------11----11----6-------|--6--6--6--6----| 
--12------------------------|--------0-----0-----0-------|--0--0--0--0----| 
--12-------------12---------|-----12-12----12----7-------|--7--7--7--7----| 

                                                                            
----------------|----------------------------|----------------------------| 
----------------|--21----21----21----21------|--21----21----21----22------| 
--20b20b20b8----|----------------------------|----------------------------| 
--6--6--6--6----|--11L11-11L11-11L11-11L11---|--11L11-11L11-11L11-11L11---| 
--0--0--0--0----|--12L12-12L12-12L12-12L12---|--12L12-12L12-12L12-12L12---| 
--7--7--7--7----|--12L12-12L12-12----12L12---|--12L12-12L12-12L12-12L12---| 

                                                           
----------------------------|----------------------------| 
--21----21----21----21------|--21----21----21----19------| 
----------------------------|----------------------------| 
--11L11-11L11-11L11-11L11---|--11L11-11L11-11L11-11L11---| 
--12L12-12L12-12L12-12L12---|--12L12-12L12-12L12-12L12---| 
--12L12-12L12-12L12-12L12---|--12L12-12L12-12L12-12L12---| 

                                                           
----------------------------|----------------------------| 
--21----21----21----21------|--21----21----21----22------| 
----------------------------|----------------------------| 
--6L-6--6L-6--6L-6--6L-6----|--6L-6--6L-6--6L-6--6L-6----| 
--7L-7--7L-7--7L-7--7L-7----|--7L-7--7L-7--7L-7--7L-7----| 
--7L-7--7L-7--7L-7--7L-7----|--7L-7--7L-7--7L-7--7L-7----| 

                                                           
----------------------------|----------------------------| 
--21----21----21----21------|--21----21----21----19------| 
----------------------------|----------------------------| 
--6L-6--6L-6--6L-6--6L-6----|--6L-6--6L-6--6L-6--6L-6----| 
--7L-7--7L-7--7L-7--7L-7----|--7L-7--7L-7--7L-7--7L-7----| 
--7L-7--7L-7--7L-7--7L-7----|--7L-7--7L-7--7L-7--7L-7----| 

                                                           
----------------------------|----------------------------| 
--21----21----21----21------|--21----21----21----22------| 
----------------------------|----------------------------| 
--11L11-11L11-11L11-11L11---|--11L11-11L11-11L11-11L11---| 
--12L12-12L12-12L12-12L12---|--12L12-12L12-12L12-12L12---| 
--12L12-12L12-12L12-0--12---|--12----12----12L12-12L12---| 

                                                           
----------------------------|----------------------------| 
--21----21----21----21------|--21----21----21----19------| 
--13------------------------|----------------------------| 
--11L11-11L11-11L11-11L11---|--11L11-11L11-11L11-11L11---| 
--12L12-12L12-12L12-12------|--12----0-----12----12L12---| 
--12L12-12L12-12L12-12L12---|--12L12-0L-0--12L12-12L12---| 

                                                           
----------------------------|----------------------------| 
--19----19----19----19------|--19----19----19----21------| 
----------------------------|----------------------------| 
--6L-6--6L-6--6L-6--6L-6----|--6L-6--6L-6--6L-6--6L-6----| 
--7L-7--7L-7--7L-7--7L-7----|--7L-7--7L-7--7L-7--7L-7----| 
--7L-7--7L-7--7L-7--0h-7----|--7-----7-----7-----7-------| 

                                                           
----------------------------|----------------------------| 
--21----21----21----16------|--16----16----16s---17------| 
----------------------------|--------------9-------------| 
--6L-6--6L-6--6L-6--6L-6----|--6L-6--6L-6--6L----6-------| 
--7L-7--7L-7--7L-7--7L-7----|--7-----7-----7-------------| 
--7-----7-----7-----7-------|--7-----7-----0L----0-------| 

                                                           
----------------------------|----------------------------| 
--0-----19----------21-19---|--------------0--------0----| 
--13-------18-13------------|--21----------21s---8--8----| 
--11------------------------|--------11----11s---6--6----| 
--12------------------------|--------0-----0-----0--0----| 
--12-------------12---------|-----12-12----12----7--7----| 

                                                           
----------------------------|----------------------------| 
--0-----17------------------|--------------0-------------| 
--8--------16-8-----16-14---|--13----13----13-------13---| 
--6-------------------------|--------6-----6-----11-11---| 
--0-------------------------|--------0-----0-----0--0----| 
--7--------------7----------|-----7--7-----7-----0-------| 

                                                                            
----------------------------|----------------------------|----------------| 
--0-----19----------21-19---|--------------0-------------|----------------| 
--13-------18-13------------|--21----------21----21------|--21b21b21b20b--| 
--11------------------------|--------11----11----6-------|--6--6--6--6----| 
--12------------------------|--------0-----0-----0-------|--7--7--7--7----| 
--12-------------12---------|-----12-12----12----7-------|--7--7--7--7----| 

                                                                            
----------------|----------------------------|--------------19------------| 
----------------|--0-----19----------21-19---|-----------------------0----| 
--20b20b20b8----|--13-------18-13------------|--21----18----------8--8----| 
--6--6--6--6----|--11------------------------|--------------------6--6----| 
--7--7--7--7----|--12------------------------|--------------------0--0----| 
--7--7--7--7----|--12-------------12---------|-----12-------------7--7----| 

                                                           
--------------------19------|--------17----------16------| 
--0-----17-------------17---|--0--------16-0-------------| 
--8--------16-8-------------|----------------------------| 
--6-------------------------|----------------------------| 
--0-------------------------|-----7-----------6----------| 
--7--------------7----------|----------------------------| 

                                                                            
----------------------------|----------------------------|----------------| 
--0-----19----------21-19---|--------------0-------------|----------------| 
--13-------18-13------------|--21----------21----21------|--21b21b21b20b--| 
--11------------------------|--------11----11----6-------|--6--6--6--6----| 
--12------------------------|--------0-----0-----0-------|--0--0--0--0----| 
--12-------------12---------|-----12-12----12----7-------|--7--7--7--5----| 

                                                                            
----------------|----------------------------|----------------------------| 
----------------|--21----21----21----21------|--21----21----21----22------| 
--20b20b20b8----|--13----13----13----13------|--13----13----13----13------| 
--6--6--6--6----|--11L11-11L11-11L11-11L11---|--11L11-11L11-11L11-11L11---| 
--0--0--0--0----|--12L12-12L12-12L12-12L12---|--12L12-12L12-12L12-12L12---| 
--5--5--5--5----|--12L12-12L12-12----0h-12---|--12----12----12L12-12L12---| 

                                                           
----------------------------|----------------------------| 
--21----21----21----21------|--21----21----21----19------| 
--13----13----13----13------|--13----13----13----13------| 
--11L11-11L11-11L11-11L11---|--11L11-11L11-11L11-11L11---| 
--12L12-12L12-12L12-12------|--12----12----12----12------| 
--12L12-12L12-12L12-12L12---|--12L12-12L12-12L12-12L12---| 

                                                           
----------------------------|----------------------------| 
--21----21----21----21------|--21----21----21----22------| 
--8-----8-----8-----8-------|--8-----8-----8-----8-------| 
--6L-6--6L-6--6L-6--6L-6----|--6L-6--6L-6--6L-6--6L-6----| 
--7L-7--7L-7--7L-7--7L-7----|--7L-7--7L-7--7L-7--7L-7----| 
--7L-7--7L-7--7L-7--0h-7----|--7-----7-----7L-7--7L-7----| 

                                                           
----------------------------|----------------------------| 
--21----21----21----21------|--21----21----21----19------| 
--8-----8-----8-----8-------|--8-----8-----8-----8-------| 
--6L-6--6L-6--6L-6--6L-6----|--6L-6--6L-6--6L-6--6L-6----| 
--7L-7--7L-7--7L-7--7-------|--7-----7-----7-----7-------| 
--7L-7--7L-7--7L-7--0L-0----|--0L-0--0L-0--0L-0--0L-0----| 

                                                           
----------------------------|----------------------------| 
--21----21----21----21------|--21----21----21----22------| 
--13----13----13----13------|--13----13----13----13------| 
--11L11-11L11-11L11-11L11---|--11L11-11L11-11L11-11L11---| 
--12L12-12L12-12L12-12L12---|--12L12-12L12-12L12-12------| 
--12L12-12L12-12L12-0h-12---|--12----12----0L-0--0L-0----| 

                                                           
----------------------------|----------------------------| 
--22----22----22----22------|--22----22----22----21------| 
--13----13----13----13------|--13----13----13----13------| 
--11L11-11L11-11L11-11L11---|--11L11-11L11-11L11-11L11---| 
--12----12----12----12------|--12----12----12----12------| 
--0L-0--0L-0--0L-0--0L-0----|--0L-0--0L-0--0L-0--0L-0----| 

                                                           
----------------------------|----------------------------| 
--21----21----21----21------|--21----21----21----19------| 
--8-----8-----8-----8-------|--8-----8-----8-----8-------| 
--6L-6--6L-6--6L-6--6L-6----|--6L-6--6L-6--6L-6--4L-4----| 
--7-----7-----7-----7--7----|--7-----7-----7-------------| 
--------------------0-------|--0-----0-----0-----7-------| 

                                                                            
----------------------------|----------------------------|--------0-------| 
--19----19----19----19------|--19----19----19----17------|----------------| 
--8-----8-----8-----8-------|--8-----8-----8-------------|--6-----6-------| 
--4L-4--4L-4--4L-4--4L-4----|--4L-4--4L-4--4L-4----------|--2-----2-------| 
--------------7-----7-------|--7-----7-----7-----0-------|--0-----0-------| 
--7-----7-----7-----7-------|--0-----0-----0-----5-------|--5--5--5--5----| 

                                                                     
-----0-----0----|--0-------------|--0-------------|--------0-------| 
----------------|----------------|----------------|----------------| 
-----6-----6----|--8-----8--9----|--9--9--9--4----|--6-----6-------| 
-----2-----2----|--4-----4--6----|--6--6--6--1----|--2-----2-------| 
-----0-----0----|--0-----0-------|----------------|--0-----0-------| 
--5--5--5--5----|--7--7--7--9----|--9--9--9--4----|--5--5--5--5----| 

                                                                     
-----0-----0----|--0-------------|--0-------------|----------------| 
----------------|----------------|----------------|--17-17-17-17---| 
-----6-----6----|--8-----8--9----|--9--9--9--4----|--6--6--6--6----| 
-----2-----2----|--4-----4--6----|--6--6--6--1----|--2--2--2--2----| 
-----0-----0----|--0-----0-------|----------------|--0--0--0--0----| 
--5--5--5--5----|--7--7--7--9----|--9--9--9--4----|--5--5--5--5----| 

                                                                     
----------------|----------------|----------------|----------------| 
--17-17-17-17---|--19-19-19-19---|--19-19-19-19---|--19-19-19-19---| 
--6--6--6--6----|--8--8--8--8----|--8--8--8--9----|--9--9--9--9----| 
--2--2--2--2----|--4--4--4--4----|--4--4--4--6----|--6--6--6--6----| 
--0--0--0--0----|--0--0--0--0----|--0--0--0-------|----------------| 
--5--5--5--5----|--7--7--7--7----|--7--7--7--9----|--9--9--9--9----| 

                                                                     
----------------|----------------|--16-16-16-16---|--16-16-16-16---| 
--19-19-19-16---|--17-17-17-17---|--17-17-17-17---|--17-17-17-17---| 
--9--9--9--4----|--6--6--6--6----|--6--6--6--6----|--6--6--6--6----| 
--6--6--6--1----|--2--2--2--2----|--2--2--2--2----|--2--2--2--2----| 
----------------|--0--0--0--0----|--0--0--0--0----|--0--0--0--0----| 
--9--9--9--4----|--5--5--5--5----|--5--5--5--5----|--5--5--5--5----| 

                                                                     
--16-16-16-14---|--14-14-14-14---|--14-17-17-17---|--17-17-17-17---| 
--17-17-17-16---|--16-16-16-16---|--16-19-19-19---|--19-19-19-19---| 
--6--6--6--8----|--8--8--8--8----|--8--8--8--9----|--9--9--9--9----| 
--2--2--2--4----|--4--4--4--4----|--4--4--4--6----|--6--6--6--6----| 
--0--0--0--0----|--0--0--0--0----|--0--0--0-------|----------------| 
--5--5--5--7----|--7--7--7--7----|--7--7--7--9----|--9--9--9--9----| 

                                                                                 
--17-17-17-16---|--16-16-16-16---|--16-16---------|----------------------------| 
--19-19-19-17---|--17-17-17-17---|--17-17---------|--0-----19----------21-19---| 
--9--9--9--11---|--11-11-11-11---|--11-11-11s13---|--13-------18-13------------| 
--6--6--6--6----|--6--6--6--6----|--6--6--6s-11---|--11------------------------| 
----------------|--------0--0----|--0--0--0-------|--12------------------------| 
--9--9--9--9----|--0--0--0--0----|--0--0--0-------|--12-------------12---------| 

                                                           
----------------------------|----------------------------| 
--------------0--------0----|--0-----17------------------| 
--21----------21s---8--8----|--8--------16-8-----16-14---| 
--------11----11s---6--6----|--6-------------------------| 
--------0-----0-----0--0----|--0-------------------------| 
-----12-12----12----7--7----|--7--------------7----------| 

                                                           
----------------------------|----------------------------| 
--------------0-------------|--0-----19----------21-19---| 
--13----13----13-------13---|--13-------18-13------------| 
--------6-----6-----11-11---|--11------------------------| 
--------0-----0-----0--0----|--12------------------------| 
-----7--7-----7-----0-------|--12-------------12---------| 

                                                                
----------------------------|----------------|----------------| 
--------------0-------------|----------------|----------------| 
--21----------21----9-------|--9b-9b-9b-9b---|--8b-8b-8b-8----| 
--------11----11----6-------|--6--6--6--6----|--6--6--6--6----| 
--------0-----0-----0-------|--7--7--7--7----|--7--7--7--7----| 
-----12-12----12----7-------|--7--7--7--0----|--0--0--0--0----| 

                                                           
----------------------------|--------------19------------| 
--0-----19----------21-19---|-----------------------0----| 
--13-------18-13------------|--21----18----------8--8----| 
--11------------------------|--------------------6--6----| 
--12-------------12---------|--------------------0--0----| 
--12------------------------|-----12-------------7--7----| 

                                                           
--------------------19------|--------17----------16------| 
--0-----17-------------17---|--0--------16-0-------------| 
--8--------16-8-------------|----------------------------| 
--6-------------------------|----------------------------| 
--0-------------------------|-----7-----------6----------| 
--7--------------7----------|----------------------------| 

                                                                            
----------------------------|----------------------------|----------------| 
--0-----19----------21-19---|--------------0-------------|----------------| 
--13-------18-13------------|--21----------21----21------|--21b21b21b20b--| 
--11------------------------|--------11----11----6-------|--6--6--6--6----| 
--12------------------------|--------0-----0-----0-------|--0--0--0--0----| 
--12-------------12---------|-----12-12----12----7-------|--7--7--7--5----| 

                                                                     
----------------|----------------|----------------|----------------| 
----------------|----------------|----------------|----------------| 
--20b20b20b20b--|--18b18b18b16b--|--16b16b16b16b--|--14b14b14b13b--| 
--6--6--6--6----|--6--6--6--6----|--6--6--6--6----|--6--6--6--6----| 
--0--0--0--0----|--0--0--0--7----|--7--7--7--7----|--7--7--7--7----| 
--5--5--5--5----|--5--5--5--0----|--0--0--0--0----|--0--0--0--0----| 

                                                             ^ 
----------------|----------------|----------------|-------|--0L---|--0L---| 
----------------|----------------|----------------|-------|-------|-------| 
--13b13b13b13b--|--11b11b11b9b---|--9b-9b-9s------|--8----|--9L---|--9L---| 
--6--6--6--6----|--6--6--6--6----|--6--6--6-------|--6----|--6L---|--6L---| 
--7--7--7--7----|--7--7--7--7----|--7--7--7-------|--7----|-------|-------| 
--0--0--0--0----|--0--0--0--0----|--0--0--0-------|--0----|--7L---|--7L---| 


--0----|| 
-------|| 
--9----|| 
--6----|| 
-------|| 
--7----|| 
	  

Search Paypal
auto scroll beats size up size down change color hide chords drawings
tab show chords e-chords YouTube Clip e-chords hide all tabs e-chords go to top tab