Rob Scallon

home > Rob Scallon

Chronosil Tab

Rob Scallon

Difficulty: nolevelnolevel

by tamamoreira

tuner correct add songbook print version text version save to e-mail
chordsukulelecavacokeyboardtabbassdrumsharmonicsflute Guitar Pro
chords

Chronosil

  		E |--------------------------------------0L----------0L----------0-------------| 
B |--------------------------------------------------0L----------0-------------| 
G |--------------------------------------------------------------0-------------| 
D |--------------------2L----------------2L----------2L----------2-------------| 
A |--------------------3L----------------3L----------3L----------3-------------| 
E |-----------3M-------3L----------------3L----------3L----------3-------------| 
B |--0M-------1M-------1L----------------1L----------1L----------1-------------| 

                                                      
----------------------------------------------------| 
----------------------------------------------------| 
----------------------------------------------------| 
----------------------------------------------------| 
--------------------------------2h-3----------------| 
--------------------2h-3----------------------------| 
--1M-4M-1M-0M-1M-0M-------0M-1M-------0M-0M-0M-0M---| 

                                                                              
--------------------------------------0L----------0L----------0-------------| 
--------------------------------------------------0L----------0-------------| 
--------------------------------------------------------------0-------------| 
--------------------2L----------------2L----------2L----------2-------------| 
--------------------3L----------------3L----------3L----------3-------------| 
-----------3M-------3L----------------3L----------3L----------3-------------| 
--0M-------1M-------1L----------------1L----------1L----------1-------------| 

                                                      
----------------------------------------------------| 
----------------------------------------------------| 
----------------------------------------------------| 
----------------------------------------------------| 
----------------------------------------------------| 
--------------------2h-3--2b------------------------| 
--1M-4M-1M-0M-1M-0M-------------0M-0M-0-----0M-0M---| 

                                                                              
--------------------------------------0L----------0L----------0-------------| 
--------------------------------------------------0L----------0-------------| 
--------------------------------------------------------------0-------------| 
--------------------2L----------------2L----------2L----------2-------------| 
--------------------3L----------------3L----------3L----------3-------------| 
-----------3M-------3L----------------3L----------3L----------3-------------| 
--0M-------1M-------1L----------------1L----------1L----------1-------------| 

                                                      
----------------------------------------------------| 
----------------------------------------------------| 
----------------------------------------------------| 
----------------------------------------------------| 
--------------------------------2h-3----------------| 
--------------------2h-3----------------------------| 
--1M-4M-1M-0M-1M-0M-------0M-1M-------0M-0M-0M-0M---| 

                                                                              
--------------------------------------0L----------0L----------0-------------| 
--------------------------------------------------0L----------0-------------| 
--------------------------------------------------------------0-------------| 
--------------------2L----------------2L----------2L----------2-------------| 
--------------------3L----------------3L----------3L----------3-------------| 
-----------3M-------3L----------------3L----------3L----------3-------------| 
--0M-------1M-------1L----------------1L----------1L----------1-------------| 

                                                      
----------------------------------------------------| 
----------------------------------------------------| 
----------------------------------------------------| 
----------------------------------------------------| 
----------------------------------------------------| 
--------------------2h-3----------------------------| 
--1M-4M-1M-0M-1M-0M-------0-----0M-0M-0-----0M-0M---| 

                                                      
----------------------------------------------------| 
----------------------------------------------------| 
----------------------------------------------------| 
----------------------------------------------------| 
--------------------------------2h-3----------------| 
--------------------2h-3----------------------------| 
--1M-4M-1M-0M-1M-0M-------0M-1M-------0M-0M-1M-4M---| 

                                                      
----------------------------------------------------| 
----------------------------------------------------| 
----------------------------------------------------| 
----------------------------------------------------| 
----------------------------------------------------| 
--------------2h-3----------------------------------| 
--1M-0M-1M-0M-------0M-0M-0-----0M-0M-0-----0M-0M---| 

                                                      
----------------------------------------------------| 
----------------------------------------------------| 
----------------------------------------------------| 
----------------------------------------------------| 
--------------------------------2h-3----------------| 
--------------------2h-3----------------------------| 
--1M-4M-1M-0M-1M-0M-------0M-1M-------0M-0M-1M-4M---| 

                                                      
----------------------------------------------------| 
----------------------------------------------------| 
----------------------------------------------------| 
----------------------------------------------------| 
----------------------------------------------------| 
--------------2h-3----------------------------------| 
--1M-0M-1M-0M-------1M-1M-1-----1M-1M-1-----1M-1M---| 

                                                      
----------------------------------------------------| 
----------------------------------------------------| 
----------------------------------------------------| 
----------------------------------------------------| 
--------------------------------2h-3----------------| 
--------------------2h-3----------------------------| 
--1M-4M-1M-1M-1M-1M-------1M-1M-------1M-1M-5M-8M---| 

                                                                             
----------------------------------------------------|----------------------| 
----------------------------------------------------|----------------------| 
----------------------------------------------------|----------------------| 
----------------------------------------------------|----------------------| 
----------------------------------------------------|----------------------| 
--------------7h-8----------------------------------|--3M-6M-3M-7s---------| 
--5M-0M-5M-0M-------4M-4M-4-----4M-4M-4-----4M-4M---|--1M-4M-1M-5s---------| 

                                                      
----------------------------------------------------| 
----------------------------------------------------| 
----------------------------------------------------| 
----------------------------------------------------| 
----------------------------------------------------| 
--------------------------------------------7h-8----| 
--5M-5M-5M-5-----5M-5-----5M-8M-5M-0M-5M-0M---------| 

                                                      
----------------------------------------------------| 
----------------------------------------------------| 
----------------------------------------------------| 
----------------------------------------------------| 
----------------------------------------------------| 
----------------------------------------------------| 
--5M-5M-5M-5s-4--4M-4s-3--3M-3s-2--2M-2s-1--1M-1M---| 

                                                      
----------------------------------------------------| 
----------------------------------------------------| 
----------------------------------------------------| 
----------------------------------------------------| 
----------------------------------------------------| 
--------------------------------------------2h-3----| 
--1M-1M-1M-1-----1M-1-----1M-4M-1M-0M-1M-0M---------| 

                                                      
----------------------------------------------------| 
----------------------------------------------------| 
----------------------------------------------------| 
----------------------------------------------------| 
----------------------------------------------------| 
----------------------------------------------------| 
--1M-1M-1M-1s-2--2M-2s-3--3M-3s-4--4M-4s-5--5M-5M---| 

                                                      
----------------------------------------------------| 
----------------------------------------------------| 
----------------------------------------------------| 
----------------------------------------------------| 
----------------------------------------------------| 
----------------------------------------------------| 
--5M-5M-5M-5-----5M-5-----5M-8M-5M-0M-5M-0M-8M-8s---| 

                                                      
----------------------------------------------------| 
----------------------------------------------------| 
----------------------------------------------------| 
----------------------------------------------------| 
----------------------------------------------------| 
----------------------------------------------------| 
--7--7M-7s-6--6M-6s-5--5M-5s-4--4M-4s-3--3M-3s-2----| 

                                                                       
----------------------------------------------------|----------------| 
----------------------------------------------------|----------------| 
----------------------------------------------------|----------------| 
----------------------------------------------------|----------------| 
----------------------------------------------------|----------------| 
--------------------------------------------2h-3----|----------------| 
--1M-1M-1M-1-----1M-1-----1M-4M-1M-0M-1M-0M---------|--1s----0--19s--| 

                                                      
----------------------------------------------------| 
----------------------------------------------------| 
----------------------------------------------------| 
----------------------------------------------------| 
--------------10----------9-------------------------| 
--------8M----8-----------7-------------------------| 
--0M----8M----8-----------7-----0M----8M-7M-5M-4M---| 

                                                      
----------------------------------------------------| 
----------------------------------------------------| 
----------------------------------------------------| 
----------------------------------------------------| 
----------------------------------------------------| 
--------7M----7-----------6-------------------------| 
--0M----5M----5-----------4-----0M----5M-4M-0M-1M---| 

              v                v           v               
--------------0-------------|--0-----------0-------------| 
--------------0-------------|--0-----------0-------------| 
--------------0-------------|--0-----------0-------------| 
--------------0-------------|--0-----------0-------------| 
--------------0-------------|--0-----------0-------------| 
-----3M-3-----0--3M-3-------|--0--3M-3-----0--3M-2-------| 
--1M-1M-1--------1M-1-------|-----1M-1--------1M-0-------| 

                                                      
----------------------------------------------------| 
----------------------------------------------------| 
----------------------------------------------------| 
----------------------------------------------------| 
--------------10----------9-------------------------| 
--------8M----8-----------7-------------------------| 
--0M----8M----8-----------7-----0M----8M-7M-5M-4M---| 

                                                      
----------------------------------------------------| 
----------------------------------------------------| 
----------------------------------------------------| 
----------------------------------------------------| 
----------------------------------------------------| 
--------7M----7-----------6-------------------------| 
--0M----5M----5-----------4-----0M----5M-4M-0M-1M---| 

              v               
--------------0-------------| 
--------------0-------------| 
--------------0-------------| 
--------------0-------------| 
--------------0-------------| 
-----3M-3-----0--3M-3-------| 
--1M-1M-1--------1M-1-------| 

                                                                              
--------------------------------------0L----------0L----------0-------------| 
--------------------------------------------------0L----------0-------------| 
--------------------0-----------------------------------------0-------------| 
--------------------x-----------------x-----------x-----------x-------------| 
--------------------1L----------------1L----------1L----------1-------------| 
-----------2M-------2L----------------2L----------2L----------2-------------| 
--0M-------4M-------4L----------------4L----------4L----------4-------------| 

                                                                              
----------------------------------------------------------------------------| 
--------------------------------------0L----------0L----------0-------------| 
--------------------0-----------------------------0L----------0-------------| 
--------------------0-----------------------------------------0-------------| 
--------------------2L----------------2L----------2L----------2-------------| 
-----------3M-------3L----------------3L----------3L----------3-------------| 
--0M-------5M-------5L----------------5L----------5L----------5-------------| 

                                                                              
--------------------------------------0L----------0L----------0-------------| 
--------------------0-----------------------------0L----------0-------------| 
--------------------0-----------------------------------------0-------------| 
--------------------2-------------------------------------------------------| 
--------------------3L----------------3L----------3L----------3-------------| 
-----------3M-------3L----------------3L----------3L----------3-------------| 
--0M-------1M-------1L----------------1L----------1L----------1-------------| 

                                                      
----------------------------------------------------| 
----------------------------------------------------| 
----------------------------------------------------| 
----------------------------------------------------| 
----------------------------------------------------| 
--------------------2h-3----------------------------| 
--1M-4M-1M-0M-1M-0M-------0-----0M-0M-0-----0M-0M---| 

                                                      
----------------------------------------------------| 
----------------------------------------------------| 
----------------------------------------------------| 
----------------------------------------------------| 
--------------------------------2h-3----------------| 
--------------------2h-3----------------------------| 
--1M-4M-1M-0M-1M-0M-------0M-1M-------0M-0M-1M-4M---| 

                                                      
----------------------------------------------------| 
----------------------------------------------------| 
----------------------------------------------------| 
----------------------------------------------------| 
----------------------------------------------------| 
--------------2h-3----------------------------------| 
--1M-0M-1M-0M-------0M-0M-0-----0M-0M-0-----0M-0M---| 

                                                      
----------------------------------------------------| 
----------------------------------------------------| 
----------------------------------------------------| 
----------------------------------------------------| 
--------------------------------2h-3----------------| 
--------------------2h-3----------------------------| 
--1M-4M-1M-0M-1M-0M-------0M-1M-------0M-0M-1M-4M---| 

                                                      
----------------------------------------------------| 
----------------------------------------------------| 
----------------------------------------------------| 
----------------------------------------------------| 
----------------------------------------------------| 
--------------2h-3----------------------------------| 
--1M-0M-1M-0M-------1M-1M-1-----1M-1M-1-----1M-1M---| 

                                                      
----------------------------------------------------| 
----------------------------------------------------| 
----------------------------------------------------| 
----------------------------------------------------| 
--------------------------------2h-3----------------| 
--------------------2h-3----------------------------| 
--1M-4M-1M-1M-1M-1M-------1M-1M-------1M-1M-5M-8M---| 

                                                                              
----------------------------------------------------|----------------------|| 
----------------------------------------------------|----------------------|| 
----------------------------------------------------|----------------------|| 
----------------------------------------------------|----------------------|| 
----------------------------------------------------|----------------------|| 
--------------7h-8----------------------------------|--3M-6M-3M-7s---------|| 
--5M-0M-5M-0M-------4M-4M-4-----4M-4M-4-----4M-4M---|--1M-4M-1M-5s---------|| 

                                                     
---------------------------------------------------| 
---------------------------------------------------| 
o--------------------------------------------------| 
o--------------------------------------------------| 
---------------------------------------------------| 
-------------------------------------------7h-8----| 
-5M-5M-5M-5-----5M-5-----5M-8M-5M-0M-5M-0M---------| 

                                                      
----------------------------------------------------| 
----------------------------------------------------| 
----------------------------------------------------| 
----------------------------------------------------| 
----------------------------------------------------| 
----------------------------------------------------| 
--5M-5M-5M-5s-4--4M-4s-3--3M-3s-2--2M-2s-1--1M-1M---| 

                                                      
----------------------------------------------------| 
----------------------------------------------------| 
----------------------------------------------------| 
----------------------------------------------------| 
----------------------------------------------------| 
--------------------------------------------2h-3----| 
--1M-1M-1M-1-----1M-1-----1M-4M-1M-0M-1M-0M---------| 

                                                      
----------------------------------------------------| 
----------------------------------------------------| 
----------------------------------------------------| 
----------------------------------------------------| 
----------------------------------------------------| 
----------------------------------------------------| 
--1M-1M-1M-1s-2--2M-2s-3--3M-3s-4--4M-4s-5--5M-5M---| 

                                                      
----------------------------------------------------| 
----------------------------------------------------| 
----------------------------------------------------| 
----------------------------------------------------| 
----------------------------------------------------| 
----------------------------------------------------| 
--5M-5M-5M-5-----5M-5-----5M-8M-5M-0M-5M-0M-8M-8s---| 

                                                      
----------------------------------------------------| 
----------------------------------------------------| 
----------------------------------------------------| 
----------------------------------------------------| 
----------------------------------------------------| 
----------------------------------------------------| 
--7--7M-7s-6--6M-6s-5--5M-5s-4--4M-4s-3--3M-3s-2----| 

                                                                       
----------------------------------------------------|---------------|| 
----------------------------------------------------|---------------|| 
----------------------------------------------------|--------------o|| 
----------------------------------------------------|--------------o|| 
----------------------------------------------------|---------------|| 
--------------------------------------------2h-3----|---------------|| 
--1M-1M-1M-1-----1M-1-----1M-4M-1M-0M-1M-0M---------|--1s----0--19s-|| 

                                                                       
----------------------------------------------------|----------------| 
----------------------------------------------------|----------------| 
----------------------------------------------------|----------------| 
----------------------------------------------------|----------------| 
----------------------------------------------------|----------------| 
--------------------------------------------2h-3----|----------------| 
--1--1--1--1-----1--1-----1M-4M-1M-0M-1M-0M---------|--1s----0--19s--| 

                                                                              
--------------------------------------0L----------0L----------0-------------| 
--------------------------------------------------0L----------0-------------| 
--------------------0-----------------------------------------0-------------| 
--------------------x-----------------x-----------x-----------x-------------| 
--------------------1L----------------1L----------1L----------1-------------| 
-----------2M-------2L----------------2L----------2L----------2-------------| 
--0M-------4M-------4L----------------4L----------4L----------4-------------| 

                                                                              
----------------------------------------------------------------------------| 
--------------------------------------0L----------0L----------0-------------| 
--------------------0-----------------------------0L----------0-------------| 
--------------------0-----------------------------------------0-------------| 
--------------------2L----------------2L----------2L----------2-------------| 
-----------3M-------3L----------------3L----------3L----------3-------------| 
--0M-------5M-------5L----------------5L----------5L----------5-------------| 

                                                      
----------------------------------------------------| 
----------------------------------------------------| 
----------------------------------------------------| 
----------------------------------------------------| 
--------------------------------2h-3----------------| 
--------------------2h-3----------------------------| 
--1M-4M-1M-0M-1M-0M-------0M-1M-------0M-0M-1M-4M---| 

                                                      
----------------------------------------------------| 
----------------------------------------------------| 
----------------------------------------------------| 
----------------------------------------------------| 
----------------------------------------------------| 
--------------2h-3----------------------------------| 
--1M-0M-1M-0M-------0M-0M-0-----0M-0M-0-----0M-0M---| 

                                                                              
--------------------------------------0L----------0L----------0-------------| 
--------------------------------------------------0L----------0-------------| 
--------------------0-----------------------------------------0-------------| 
--------------------x-----------------x-----------x-----------x-------------| 
--------------------1L----------------1L----------1L----------1-------------| 
-----------2M-------2L----------------2L----------2L----------2-------------| 
--0M-------4M-------4L----------------4L----------4L----------4-------------| 

                                                                              
----------------------------------------------------------------------------| 
--------------------------------------0L----------0L----------0-------------| 
--------------------0-----------------------------0L----------0-------------| 
--------------------0-----------------------------------------0-------------| 
--------------------2L----------------2L----------2L----------2-------------| 
-----------3M-------3L----------------3L----------3L----------3-------------| 
--0M-------5M-------5L----------------5L----------5L----------5-------------| 

              ^                         v                  
--------------0L------------|--0--------x----------------| 
--------------0L------------|--0--------x----------------| 
--------------0L------------|--0--------x----------------| 
--------2-----2L------------|--2--------x----------------| 
--------3-----3L------------|--3--------x----------------| 
-----3M-3-----3L------------|--3--------x----------------| 
--0M-1M-1-----1L------------|--1-----------0-------------| 

                                                                                 
-------------------------------------------------------------------------------- 
-------------------------------------------------------------------------------- 
-------------------------------------------------------------------------------- 
-------------------------------------------------------------------------------- 
-------------------------------------------------------------------------------- 
-------------------------------------------------------------------------------- 
--0M----0M----0M----0-----------0M----0-----------0M----0M----0M----0----------- 

                      
--------------------| 
--------------------| 
--------------------| 
--------------------| 
--------------------| 
--------------------| 
0M----0-------------| 

                                                                                 
-------------------------------------------------------------------------------- 
-------------------------------------------------------------------------------- 
-------------------------------------------------------------------------------- 
-------------------------------------------------------------------------------- 
-------------------------------------------------------------------------------- 
-------------------------------------------------------------------------------- 
--0M----0M----0M----0-----------0M----0-----------0M----0M----0M----0----------- 

                      
--------------------| 
--------------------| 
--------------------| 
--------------------| 
--------------------| 
--------------------| 
0M----0-------------| 

                                                                                 
-------------------------------------------------------------------------------- 
-------------------------------------------------------------------------------- 
-------------------------------------------------------------------------------- 
-------------------------------------------------------------------------------- 
-------------------------------------------------------------------------------- 
-------------------------------------------------------------------------------- 
--1M----1M----1M----1-----------1M----1-----------1M----1M----1M----1----------- 

                                                                           
--------------------|----------------------------------------------------| 
--------------------|----------------------------------------------------| 
--------------------|----------------------------------------------------| 
--------------------|----------------------------------------------------| 
--------------------|----------------------------------------------------| 
--------------------|--2h-3h-2-----2-----------------------2h-3----------| 
1M----1-------------|-----------4M----4M-1h-4h-1h-0h-1h-0--------0M-0M---| 

                                                                                 
-------------------------------------------------------------------------------- 
-------------------------------------------------------------------------------- 
-------------------------------------------------------------------------------- 
-------------------------------------------------------------------------------- 
-------------------------------------------------------------------------------- 
-------------------------------------------------------------------------------- 
--0M----0M----0M----0-----------0M----0-----------0M----0M----0M----0----------- 

                      
--------------------| 
--------------------| 
--------------------| 
--------------------| 
--------------------| 
--------------------| 
0M----0-------------| 

                                                                                 
-------------------------------------------------------------------------------- 
-------------------------------------------------------------------------------- 
-------------------------------------------------------------------------------- 
-------------------------------------------------------------------------------- 
-------------------------------------------------------------------------------- 
-------------------------------------------------------------------------------- 
--0M----0M----0M----0-----------0M----0-----------0M----0M----0M----0----------- 

                      
--------------------| 
--------------------| 
--------------------| 
--------------------| 
--------------------| 
--------------------| 
0M----0-------------| 

                                                                                 
-------------------------------------------------------------------------------- 
-------------------------------------------------------------------------------- 
-------------------------------------------------------------------------------- 
-------------------------------------------------------------------------------- 
-------------------------------------------------------------------------------- 
-------------------------------------------------------------------------------- 
--1M----1M----1M----1-----------1M----1-----------1M----1M----1M----1----------- 

                                                                           
--------------------|----------------------------------------------------| 
--------------------|----------------------------------------------------| 
--------------------|----------------------------------------------------| 
--------------------|----------------------------------------------------| 
--------------------|--2h-3h-2-----2-------------------------------------| 
--------------------|-----------3M----3M-2h-3h-2-----2-------------------| 
1M----1-------------|-----------------------------4M----4M-1h-4h-1h-0----| 

                                                                                 
-------------------------------------------------------------------------------- 
-------------------------------------------------------------------------------- 
-------------------------------------------------------------------------------- 
-------------------------------------------------------------------------------- 
-------------------------------------------------------------------------------- 
-------------------------------------------------------------------------------- 
--0M----0M----0M----0-----------0M----0-----------0M----0M----0M----0----------- 

                      
--------------------| 
--------------------| 
--------------------| 
--------------------| 
--------------------| 
--------------------| 
0M----0-------------| 

                                                                                 
-------------------------------------------------------------------------------- 
-------------------------------------------------------------------------------- 
-------------------------------------------------------------------------------- 
-------------------------------------------------------------------------------- 
-------------------------------------------------------------------------------- 
-------------------------------------------------------------------------------- 
--0M----0M----0M----0-----------0M----0-----------0M----0M----0M----0----------- 

                      
--------------------| 
--------------------| 
--------------------| 
--------------------| 
--------------------| 
--------------------| 
0M----0-------------| 

                                                                                 
-------------------------------------------------------------------------------- 
-------------------------------------------------------------------------------- 
-------------------------------------------------------------------------------- 
-------------------------------------------------------------------------------- 
-------------------------------------------------------------------------------- 
-------------------------------------------------------------------------------- 
--1M----1M----1M----1-----------1M----1-----------1M----1M----1M----1----------- 

                                                                           
--------------------|----------------------------------------------------| 
--------------------|----------------------------------------------------| 
--------------------|----------------------------------------------------| 
--------------------|----------------------------------------------------| 
--------------------|----------------------------------------------------| 
--------------------|--2h-3h-2-----2-----------------------2h-3----------| 
1M----1-------------|-----------4M----4M-1h-4h-1h-0h-1h-0--------0M-0M---| 

                                                                                 
-------------------------------------------------------------------------------- 
-------------------------------------------------------------------------------- 
-------------------------------------------------------------------------------- 
-------------------------------------------------------------------------------- 
-------------------------------------------------------------------------------- 
-------------------------------------------------------------------------------- 
--0M----0M----0M----0-----------0M----0-----------0M----0M----0M----0----------- 

                      
--------------------| 
--------------------| 
--------------------| 
--------------------| 
--------------------| 
--------------------| 
0M----0-------------| 

                                                                                 
-------------------------------------------------------------------------------- 
-------------------------------------------------------------------------------- 
-------------------------------------------------------------------------------- 
-------------------------------------------------------------------------------- 
-------------------------------------------------------------------------------- 
-------------------------------------------------------------------------------- 
--0M----0M----0M----0-----------0M----0-----------0M----0M----0M----0----------- 

                      
--------------------| 
--------------------| 
--------------------| 
--------------------| 
--------------------| 
--------------------| 
0M----0-------------| 

                                                                                 
-------------------------------------------------------------------------------- 
-------------------------------------------------------------------------------- 
-------------------------------------------------------------------------------- 
-------------------------------------------------------------------------------- 
-------------------------------------------------------------------------------- 
-------------------------------------------------------------------------------- 
--1M----1M----1M----1-----------1M----1-----------1M----1M----1M----1----------- 

                      
--------------------| 
--------------------| 
--------------------| 
--------------------| 
--------------------| 
--------------------| 
1M----1-------------| 

                                                                                 
-------------------------------------------------------------------------------- 
-------------------------------------------------------------------------------- 
-------------------------------------------------------------------------------- 
-------------------------------------------------------------------------------- 
-------------------------------------------------------------------------------- 
-------------------------------------------------------------------------------- 
--4M----4M----4M----4-----------4M----4-----------4M----4M----4M----4----------- 

                      
--------------------| 
--------------------| 
--------------------| 
--------------------| 
--------------------| 
--------------------| 
4M----4-------------| 

                                                                              
--------------------------------------0L----------0L----------0-------------| 
--------------------------------------------------0L----------0-------------| 
--------------------0-----------------------------------------0-------------| 
--------------------x-----------------x-----------x-----------x-------------| 
--------------------1L----------------1L----------1L----------1-------------| 
-----------2M-------2L----------------2L----------2L----------2-------------| 
--0M-------4M-------4L----------------4L----------4L----------4-------------| 

                                                                              
----------------------------------------------------------------------------| 
--------------------------------------0L----------0L----------0-------------| 
--------------------0-----------------------------0L----------0-------------| 
--------------------0-----------------------------------------0-------------| 
--------------------2L----------------2L----------2L----------2-------------| 
-----------3M-------3L----------------3L----------3L----------3-------------| 
--0M-------5M-------5L----------------5L----------5L----------5-------------| 

                                                      
----------------------------------------------------| 
----------------------------------------------------| 
----------------------------------------------------| 
----------------------------------------------------| 
--------------------------------2h-3----------------| 
--------------------2h-3----------------------------| 
--1M-4M-1M-0M-1M-0M-------0M-1M-------0M-0M-1M-4M---| 

                                                      
----------------------------------------------------| 
----------------------------------------------------| 
----------------------------------------------------| 
----------------------------------------------------| 
----------------------------------------------------| 
--------------2h-3----------------------------------| 
--1M-0M-1M-0M-------0M-0M-0-----0M-0M-0-----0M-0M---| 

                                                                              
--------------------------------------0L----------0L----------0-------------| 
--------------------------------------------------0L----------0-------------| 
--------------------0-----------------------------------------0-------------| 
--------------------x-----------------x-----------x-----------x-------------| 
--------------------1L----------------1L----------1L----------1-------------| 
-----------2M-------2L----------------2L----------2L----------2-------------| 
--0M-------4M-------4L----------------4L----------4L----------4-------------| 

                                                                              
----------------------------------------------------------------------------| 
--------------------------------------0L----------0L----------0-------------| 
--------------------0-----------------------------0L----------0-------------| 
--------------------0-----------------------------------------0-------------| 
--------------------2L----------------2L----------2L----------2-------------| 
-----------3M-------3L----------------3L----------3L----------3-------------| 
--0M-------5M-------5L----------------5L----------5L----------5-------------| 

                                                      
----------------------------------------------------| 
----------------------------------------------------| 
----------------------------------------------------| 
----------------------------------------------------| 
----------------------------------------------------| 
--------------------7--8--7-----7-------------------| 
--5M-8M-5M-0M-5M-0M----------8M----8M-7--8--8M-8M---| 

                                                      
----------------------------------------------------| 
----------------------------------------------------| 
----------------------------------------------------| 
----------------------------------------------------| 
----------------------------------------------------| 
----------------------------------------------------| 
--8s-7--7M-7s-6--6M-6s-5--5M-5s-4--4M-4s-3--3s-2----| 

                                                                              
--------------------------------------0L----------0L----------0-------------| 
--------------------------------------------------0L----------0-------------| 
--------------------0-----------------------------------------0-------------| 
--------------------x-----------------x-----------x-----------x-------------| 
--------------------1L----------------1L----------1L----------1-------------| 
-----------2M-------2L----------------2L----------2L----------2-------------| 
--0M-------4M-------4L----------------4L----------4L----------4-------------| 

                                                                              
----------------------------------------------------------------------------| 
--------------------------------------0L----------0L----------0-------------| 
--------------------0-----------------------------0L----------0-------------| 
--------------------0-----------------------------------------0-------------| 
--------------------2L----------------2L----------2L----------2-------------| 
-----------3M-------3L----------------3L----------3L----------3-------------| 
--0M-------5M-------5L----------------5L----------5L----------5-------------| 

                                                      
----------------------------------------------------| 
----------------------------------------------------| 
----------------------------------------------------| 
----------------------------------------------------| 
--------------------------------2h-3----------------| 
--------------------2h-3----------------------------| 
--1M-4M-1M-0M-1M-0M-------0M-1M-------0M-0M-1M-4M---| 

                                                      
----------------------------------------------------| 
----------------------------------------------------| 
----------------------------------------------------| 
----------------------------------------------------| 
----------------------------------------------------| 
--------------2h-3----------------------------------| 
--1M-0M-1M-0M-------0M-0M-0-----0M-0M-0-----0M-0M---| 

                                                                              
--------------------------------------0L----------0L----------0-------------| 
--------------------------------------------------0L----------0-------------| 
--------------------0-----------------------------------------0-------------| 
--------------------x-----------------x-----------x-----------x-------------| 
--------------------1L----------------1L----------1L----------1-------------| 
-----------2M-------2L----------------2L----------2L----------2-------------| 
--0M-------4M-------4L----------------4L----------4L----------4-------------| 

                                                                              
----------------------------------------------------------------------------| 
--------------------------------------0L----------0L----------0-------------| 
--------------------0-----------------------------0L----------0-------------| 
--------------------0-----------------------------------------0-------------| 
--------------------2L----------------2L----------2L----------2-------------| 
-----------3M-------3L----------------3L----------3L----------3-------------| 
--0M-------5M-------5L----------------5L----------5L----------5-------------| 

              ^                                       v 
--------------0L------------|--0L---|--0L----------0--x----------|| 
--------------0L------------|--0L---|--0L----------0--x----------|| 
--------------0L------------|--0L---|--0L----------0--x----------|| 
--------2-----2L------------|--2L---|--2L----------2--x----------|| 
--------3-----3L------------|--3L---|--3L----------3--x----------|| 
-----3M-3-----3L------------|--3L---|--3L----------3--x----------|| 
--0M-1M-1-----1L------------|--1L---|--1L----------1-----0-------|| 


---------------------------------------------------| 
---------------------------------------------------| 
o--------------------------------------------------| 
o--------------------------------------------------| 
---------------------------------------------------| 
-------------------7h-8--------6h-7--------2h-3----| 
-5M-8M-5M-0M-5M-0M-------0M-4M-------0M-1M---------| 


---------------------------------------------------|| 
---------------------------------------------------|| 
--------------------------------------------------o|| 
--------------------------------------------------o|| 
--------2h-3--------6h-7---------------------------|| 
--------------------------------7h-8--------6h-7---|| 
--0M-1M-------0M-4M-------0M-5M-------0M-4M--------|| 


----------------------------------------------------| 
----------------------------------------------------| 
----------------------------------------------------| 
----------------------------------------------------| 
----------------------------------------------------| 
--------------------7h-8--------6h-7--------2h-3----| 
--5M-8M-5M-0M-5M-0M-------0M-4M-------0M-1M---------| 


----------------------------------------------------| 
----------------------------------------------------| 
----------------------------------------------------| 
----------------------------------------------------| 
--------2h-3--------6h-7----------------------------| 
--------------------------------7h-8--------6h-7----| 
--0M-1M-------0M-4M-------0M-5M-------0M-4M---------| 


----------------------------------------------------| 
----------------------------------------------------| 
----------------------------------------------------| 
----------------------------------------------------| 
----------------------------------------------------| 
--------------------7h-8--------6h-7--------2h-3----| 
--5M-8M-5M-0M-5M-0M-------0M-4M-------0M-1M---------| 


----------------------------------------------------|----|----|| 
----------------------------------------------------|----|----|| 
----------------------------------------------------|----|----|| 
--------------------2--3--2-------------------------|----|----|| 
--------2h-3--------2h-3--2-------------------------|----|----|| 
----------------------------------------------------|----|----|| 
--0M-1M-------0M-0M---------------------------------|----|----|| 
	  

Search Paypal
auto scroll beats size up size down change color hide chords drawings
tab show chords e-chords YouTube Clip e-chords hide all tabs e-chords go to top tab