Rob Scallon

home > Rob Scallon

One Fret Song Tab

Rob Scallon

Difficulty: nolevelnolevel

by aman%5Fclaudino

tuner correct add songbook print version text version save to e-mail
chordsukulelecavacokeyboardtabbassdrumsharmonicsflute Guitar Pro
chords

One Fret Song

  		
 INTRO 
         
D||-------------------------| 
A||-------------------------| 
F||-------------------------| 
C||-------------------------| 
G||-------------------------| 
D||--4-----------------5----| 


 PART 1  2x 
--------------------------------------| 
--------------------------------------| 
--------------------------------------| 
--------------------------------------| 
--------------------------------------| 
--4--4--4--4--4--4--4--4--4--4--4--4--| 


   
--------------------------------------| 
--------------------------------------| 
--------------------------------------| 
--------------------------------------| 
--------------------------------------| 
--4--4--4--4--4--4--4--4--4--4--4--4--| 


   
----------------------------------| 
----------------------------------| 
----------------------------------| 
----------------------------------| 
----------------------------------| 
--5-5-5-5-5-5-5-5-5-5-5-5-5-5-5-5-| 

  
----------------------------------| 
----------------------------------| 
----------------------------------| 
----------------------------------| 
----------------------------------| 
--7-7-7-7-7-7-7-7-7-7-7-7-5-5-5-5-| 

   


Part 2 
--------------------------------------| 
--------------------------------------| 
--------------------------------------| 
--------------------------------------| 
--------------4--------6--6--------6--| 
--4--4--4--4--4--4--4--4--4--4--4--4--| 


---------------------------------------| 
---------------------------------------| 
---------------------------------------| 
---------------------------------------| 
--------6--------------6--------4------| 
--4--4--4--4--4--4--4--4--4--4--4--4-4-| 

  
------------------------------| 
------------------------------| 
------------------------------| 
------------------------------| 
----------4------4--4------4--| 
--5-5-5-5-5--5-5-5--5--5-5-5--| 


----------------------------------| 
----------------------------------| 
----------------------------------| 
----------------------------------| 
--7-7-7-7-7-7-7-7-7-7-7-7-6-6-6-6-| 
----------------------------------| 

  
--------------------------------------| 
--------------------------------------| 
--------------------------------------| 
--------------------------------------| 
--------------4--------6--6--------6--| 
--4--4--4--4--4--4--4--4--4--4--4--4--| 


---------------------------------------| 
---------------------------------------| 
---------------------------------------| 
---------------------------------------| 
--------6--------------6--------4------| 
--4--4--4--4--4--4--4--4--4--4--4--4-4-| 

   
--------------------------| 
--------------------------| 
--------------------------| 
--------------------------| 
--4--4--4--4--4--4--4--4--| 
--5--5--5--5--5--5--5--5--| 


     
--------------------------| 
--------------------------| 
--------------------------| 
--------------------------| 
--4-----------------------| 
--5-----------------4b----| 


  PART 3  
------------------------------| 
----------5--4----------------| 
------------------------4-----| 
---------------------------6--| 
------------------------------| 
--4-4-4-4-------4-4-4-4-------| 


  
----------------------------------| 
----------------------------------| 
----------------------------------| 
----------------------------------| 
----------------------------------| 
--4-4-4-4-4-4-4-4-5-5-5-5-5-5-5-5-| 

    
------------------------------| 
----------5--4----------------| 
------------------------4-----| 
---------------------------6--| 
------------------------------| 
--4-4-4-4-------4-4-4-4-------| 


   
-------------------------------| 
-------------------------------| 
-------------------------------| 
-------------------------------| 
------------------4------4--4--| 
--4-4-4-4-5-5-5-5-5--5-5-5--5--| 


  
------------------------------| 
----------5--4----------------| 
------------------------4-----| 
---------------------------6--| 
------------------------------| 
--4-4-4-4-------4-4-4-4-------| 


----------------------------------| 
----------------------------------| 
----------------------------------| 
----------------------------------| 
----------------------------------| 
--4-4-4-4-4-4-4-4-5-5-5-5-5-5-5-5-| 



------------------------------| 
----------5--4----------------| 
------------------------4-----| 
---------------------------6--| 
------------------------------| 
--5-5-5-5-------5-5-5-5-------| 

    
------------------------------| 
------------------------------| 
------------------------------| 
----------4-------------------| 
-------------7----------4b----| 
--5-5-5-5-------4-4-4-4-------| 


PART 4 "Chorus" 
----------------------------| 
----------4------5--4--4----| 
----------4------4--4--4----| 
--2-2-2-2-2--2-2-2--2--2----| 
----------------------------| 
----------------------------| 

----------------------------| 
----------------------------| 
----------------------------| 
----------2------4--2--2----| 
--4-4-4-4-4--4-4-4--4--4----| 
----------------------------| 


------------------------------| 
------------------------------| 
------------------------------| 
------------------------------| 
----------4------6--6------6--| 
--4-4-4-4-4--4-4-4--4--4-4-4--| 


-------------------------------| 
-------------------------------| 
-------------------------------| 
-------------------------------| 
------6----------6------4------| 
--4-4-4--4-4-4-4-4--4-4-4--4-4-| 


----------------------------| 
----------4------5--4--4----| 
----------4------4--4--4----| 
--2-2-2-2-2--2-2-2--2--2----| 
----------------------------| 
----------------------------| 


----------------------------| 
----------------------------| 
----------------------------| 
----------2------4--2--2----| 
--4-4-4-4-4--4-4-4--4--4----| 
----------------------------| 


     
------------------------------| 
------------------------------| 
------------------------------| 
------------------------------| 
----------4------6--6------4--| 
--4-4-4-4-4--4-4-4--4--4-4-4--| 

    
--------------------------| 
--------------------------| 
--------------------------| 
--------------------------| 
--------------------------| 
--4-----------5--4--5--4--| 


  PART 5 SOLO  
----------------------------------| 
----------------------------------| 
----------------------------------| 
----------------------------------| 
----------------------------------| 
--4-4-4-4-4-4-4-4-4-4-4-4-4-4-4-4-| 


----------------------------------| 
----------------------------------| 
----------------------------------| 
----------------------------------| 
----------------------------------| 
--4-4-4-4-4-4-4-4-4-4-4-4-4-4-4-4-| 


----------------------------------| 
----------------------------------| 
----------------------------------| 
----------------------------------| 
----------------------------------| 
--5-5-5-5-5-5-5-5-5-5-5-5-5-5-5-5-| 


----------------------------------| 
----------------------------------| 
----------------------------------| 
----------------------------------| 
----------------------------------| 
--7-7-7-7-7-7-7-7-7-7-7-7-7-7-5-5-| 


----------------------------------| 
----------------------------------| 
----------------------------------| 
----------------------------------| 
----------------------------------| 
--4-4-4-4-4-4-4-4-4-4-4-4-4-4-4-4-| 


----------------------------------| 
----------------------------------| 
----------------------------------| 
----------------------------------| 
----------------------------------| 
--4-4-4-4-4-4-4-4-4-4-4-4-4-4-4-4-| 


----------------------------------| 
----------------------------------| 
----------------------------------| 
----------------------------------| 
----------------------------------| 
--5-5-5-5-5-5-5-5-5-5-5-5-5-5-5-5-| 


----------------------------------| 
----------------------------------| 
----------------------------------| 
----------------------------------| 
----------------------------------| 
--7-7-7-7-7-7-7-7-7-7-7-7-5-5-5-5-| 


SOLO SECOND HALF 
--------------------------------------| 
--------------------------------------| 
--------------------------------------| 
--------------------------------------| 
--------------4--------6--6--------6--| 
--4--4--4--4--4--4--4--4--4--4--4--4--| 


---------------------------------------| 
---------------------------------------| 
---------------------------------------| 
---------------------------------------| 
--------6--------------6--------4------| 
--4--4--4--4--4--4--4--4--4--4--4--4-4-| 


------------------------------| 
------------------------------| 
------------------------------| 
------------------------------| 
----------4------4--4------4--| 
--5-5-5-5-5--5-5-5--5--5-5-5--| 


------------------------------| 
------------------------------| 
------------------------------| 
------------------------------| 
------4----------4------4--4--| 
--5-5-5--5-5-5-5-5--5-5-5--5--| 


--------------------------------------| 
--------------------------------------| 
--------------------------------------| 
--------------------------------------| 
--------------4--------6--6--------6--| 
--4--4--4--4--4--4--4--4--4--4--4--4--| 


---------------------------------------| 
---------------------------------------| 
---------------------------------------| 
---------------------------------------| 
--------6--------------6--------4------| 
--4--4--4--4--4--4--4--4--4--4--4--4-4-| 


--------------------------|-----| 
--------------------------|-----| 
--------------------------|-----| 
--------------------------|-----| 
--4--4--4--4--4--4--4--4--|--4--| 
--5--5--5--5--5--5--5--5--|--5--| 



"Chorus" 
----------------------------| 
----------4------5--4--4----| 
----------4------4--4--4----| 
--2-2-2-2-2--2-2-2--2--2----| 
----------------------------| 
----------------------------| 

  
----------------------------| 
----------------------------| 
----------------------------| 
----------2------4--2--2----| 
--4-4-4-4-4--4-4-4--4--4----| 
----------------------------| 


------------------------------| 
------------------------------| 
------------------------------| 
------------------------------| 
----------4------6--6------6--| 
--4-4-4-4-4--4-4-4--4--4-4-4--| 


-------------------------------| 
-------------------------------| 
-------------------------------| 
-------------------------------| 
------6----------6------4------| 
--4-4-4--4-4-4-4-4--4-4-4--4-4-| 


----------------------------| 
----------4------5--4--4----| 
----------4------4--4--4----| 
--2-2-2-2-2--2-2-2--2--2----| 
----------------------------| 
----------------------------| 


----------------------------| 
----------------------------| 
----------------------------| 
----------2------4--2--2----| 
--4-4-4-4-4--4-4-4--4--4----| 
----------------------------| 


------------------------------| 
------------------------------| 
------------------------------| 
------------------------------| 
----------4------6--6------6--| 
--4-4-4-4-4--4-4-4--4--4-4-4--| 


------------------------------| 
------------------------------| 
------------------------------| 
------------------------------| 
------6----------6------------| 
--4-4-4--4-4-4-4-4--4-4-4--4--| 


----------------------------| 
----------4------5--4--4----| 
----------4------4--4--4----| 
--2-2-2-2-2--2-2-2--2--2----| 
----------------------------| 
----------------------------| 


----------------------------| 
----------------------------| 
----------------------------| 
----------2------4--2--2----| 
--4-4-4-4-4--4-4-4--4--4----| 
----------------------------| 


------------------------------| 
------------------------------| 
------------------------------| 
------------------------------| 
----------4------6--6------6--| 
--4-4-4-4-4--4-4-4--4--4-4-4--| 


-------------------------------| 
-------------------------------| 
-------------------------------| 
-------------------------------| 
------6----------6------4------| 
--4-4-4--4-4-4-4-4--4-4-4--4-4-| 

            
-------------------|-------------------| 
--4----------------|-------------------| 
--4----------------|--6----------------| 
--2----------------|--6----------------| 
-------------------|--4----------------| 
-------------------|--4----------------| 


------------------------------|-----|| 
------------------------------|-----|| 
------------------------------|-----|| 
------------------------------|-----|| 
------------------------------|-----|| 
--4-4-4-4-4--4-4-4--4--4-4-5--|--4--|| 
 
	  

Search Paypal
auto scroll beats size up size down change color hide chords drawings
tab show chords e-chords YouTube Clip e-chords hide all tabs e-chords go to top tab