Guns N' Roses

home > Guns N' Roses

You Could Be Mine Tab

Guns N' Roses

Difficulty: ExpertExpert

by xiriura

tuner correct add songbook print version text version save to e-mail
chordsukulelecavacokeyboardtabbassdrummharmonicsflute Guitar Pro
chords

You Could Be Mine

Year: 1991 - Album: Greatest Hits

(Rose, Slash)

	  
Intro: 

e|----------------------------------------------------------------| 
B|-16b17r16-----14--16b17r16--14-14b15r14-----12--14b15r14-----12-| 
G|-16b17r16-14--14--16b17r16--14-14b15r14-12--12--14b15r14-12--12-| 
D|------------16------------16--------------14---------------14---| 
A|----------------------------------------------------------------| 
E|----------------------------------------------------------------| 

e|------------------------------------| 
B|-16b17r16------14--16b17r16------14-| 
G|-16b17r16-14---14--16b17r16-14---14-| 
D|-------------16----------------16---| 
A|------------------------------------| 
E|------------------------------------| 

e|---------------------------------------------------------------| 
B|----14b15r14-----12--12--12--12--------------------------------| 
G|----14b15r14-12--12--12--12--12--/9^--/13^--/14^--14h16^-16b18-| 
D|---------------14--14--14--14----------------------------------| 
A|---------------------------------------------------------------| 
E|---------------------------------------------------------------| 

Intro 2: 

e|-------------------------------------------------------------------| 
B|-------------------------------------------------------------------| 
G|-2-4-2-4-2-------------------2-4-2-4-2-----------------------------| 
D|-2-4-2-4-2-4-2-4-4-2-4-2-4---2-4-2-4-2-4-2-4-4-2-4-2-4-------------| 
A|-----------4-2-4-4-2-4-2-4-------------4-2-4-4-2-4-2-4-------------| 
E|-------------------------------------------------------------------| 

e|-------------------------------------------------------------------| 
B|-------------------------------------------------------------------| 
G|-2-4-2-4-2-----------------2-4-2-4-2-------------------------------| 
D|-2-4-2-4-2-4-2-2-2-2-2-2---2-4-2-4-2-4-2-4-4-2-4-2-4---------------| 
A|-----------4-2-2-2-2-2-2-------------4-2-4-4-2-4-2-4---------------| 
E|-------------------------------------------------------------------| 

e|-------2------------------------------------------| 
B|-5b7-5---5-2-----2-5--------------2-5-------------| 
G|-------------4b6-----4b6r4-2-24b6-----4b6r4-2-4b6-| 
D|--------------------------------------------------| 
A|--------------------------------------------------| 
E|--------------------------------------------------| 

e|---------------------| 
B|---2-4-2-4-2---------| 
G|---2-4-2-4-2---------| 
D|--------------4-2-4^-| 
A|---------------------| 
E|---------------------| 

Verse: 

e|-----------------2-----2---2-----------------2----2---2------------| 
B|-2-4-2-4-2-------2-----2---2--2-4-2-4-2------2----2---2------------| 
G|-2-4-2-4-2--------------------2-4-2-4-2----------------------------| 
D|-----------4-2-4---4-4---4--------------4-2-4-4-4---4--------------| 
A|-------------------------------------------------------------------| 
E|-------------------------------------------------------------------| 

e|-----------------0-----0---0------------------2----2---2-----------| 
B|-2-4-2-4-2-------0-----0---0--2-4-2-4-2-------2----2---2-----------| 
G|-2-4-2-4-2-----1---1-1---1----2-4-2-4-2----------------------------| 
D|-----------4-2-2---2-2---2--------------4-2-4--4-4---4-------------| 
A|-------------------------------------------------------------------| 
E|-------------------------------------------------------------------| 

Chorus 1: 


e|-------------------------------------------------------------------| 
B|-------------------------------------------------------------------| 
G|-2-4-2-4-2----------2-----4-----------2-----4----------------------| 
D|-2-4-2-4-2-4-2----2-----4-------4---2-----4-------4----------------| 
A|-----------4-2--0-----2-------4---0-----2-------4---2-2------------| 
E|----------------------------2-----------------2-----2-2------------| 

e|-------------------------------------------------------------------| 
B|------------0------------------------------------------------------| 
G|-----2-----4--14-13-11-9-11-----2-----4----------------------------| 
D|---2-----4--------------------2-----4------4-----------------------| 
A|-0-----2------12-11-9--7-9--0-----2------4-------------------------| 
E|---------------------------------------2---------------------------| 

Chorus 2: 

e|-------------------------------------------------------------------| 
B|-------------------------------------------------------------------| 
G|-2-4-2-4-2----------2-----4-----------2-----4----------------------| 
D|-2-4-2-4-2-4-2----2-----4-------4---2-----4-------4----------------| 
A|-----------4-2--0-----2-------4---0-----2-------4---2-2------------| 
E|----------------------------2-----------------2-----2-2------------| 



e|-------------------------------------------------------------------| 
B|-------------------------------------------------------------------| 
G|-----2-----4--14-13-11-9/11-----2-----4----------------------------| 
D|---2-----4--------------------2-----4---6--------------------------| 
A|-0-----2------12-11-9--7/9--0-----2-----4--------------------------| 
E|-------------------------------------------------------------------| 


Verso 2: 

e|-------------------------------------------------------------------| 
B|-------------------------------------------------------------------| 
G|-------------------------------------------------------------------| 
D|---------7-7-7-7----------7-7-7-7-------4-2---7-7-7-7-7-7-4--------| 
A|-5-4-5-7-5-5-7-7--5-4-5-7-5-5-7-7-5-4-5-2-0-5-5-5-5-5-5-5-2--------| 
E|-3-2-3-5----------3-2-3-5---------3-2-3-----3----------------------| 


Verse 3: 

e|-------------------------------------------------------------------| 
B|-------------------------------------------------------------------| 
G|-------------------------------------------------------------------| 
D|-4-6-7-7-6--4-6-7-7-6--4-6-7-7-6--4-6-7-7-6------------------------| 
A|-2-4-5-5-4--2-4-5-5-4--2-4-5-5-4--2-4-5-5-4------------------------| 
E|-------------------------------------------------------------------| 


Solo 2: 

e|----------------14-------17b19r17-14-------16b17r16-14-------------| 
B|-17b19----14-17----17-14-------------17-14-------------14----------| 
G|-------16-------------------------------------------------14-------| 
D|-------------------------------------------------------------16----| 
A|-------------------------------------------------------------------| 
E|-------------------------------------------------------------------| 


Solo principal: 

e|-----------------------------------------------------------------------------| 
B|-7-7-7---7---7-9b10r9-9b10-9-7-9-7-------7-9b10r9-9b10r9-9b10r9-9b10r9-------| 
G|-7-7-7---7---7-9b10r9-9b10-9-7-9-7-------7-9b10r9-9b10r9-9b10r9-9b10r9-------| 
D|-------9---9-----------------------9-7-9-------------------------------------| 
A|-----------------------------------------------------------------------------| 
E|-----------------------------------------------------------------------------| 



e|--------------------------------------------------------------------| 
B|--------------------------------------------------------------------| 
G|---7h9-7-6-7-6-7-6h7p6---6---6--------------------------------------| 
D|-9---------------------9---9---9-7-9-7---7-9-7----------------------| 
A|--------------------------------------9-------9-8h9p8-7b8r7---------| 
E|--------------------------------------------------------------------| 



e|-----------------7------10-7------10^-9h10p9p7----9----9-7h9p7-----| 
B|-----------10b12---10-7------10-7--------------10---10-------------| 
G|-----------x-------------------------------------------------------| 
D|-----------x-------------------------------------------------------| 
A|5---5------x-------------------------------------------------------| 
E|--7---7-7\---------------------------------------------------------| 



e|----7---------10-------12-10-------12/14-10-------12/17------------| 
B|-10--10-10/12----12-10-------12-10----------12-10------------------| 
G|-------------------------------------------------------------------| 
D|-------------------------------------------------------------------| 
A|-------------------------------------------------------------------| 
E|-------------------------------------------------------------------| 



e|-14----------14-------17-14----------14-------17----17----17b19----| 
B|----17-14-17----17-14-------17-14-17----17-14----14----14----------| 
G|-------------------------------------------------------------------| 
D|-------------------------------------------------------------------| 
A|-------------------------------------------------------------------| 
E|-------------------------------------------------------------------| 



e|-(19)------------------------------------------------------------------| 
B|-----17b19r17-15-------------------------------------------------------| 
G|-----------------16-14-------------------------------------------------| 
D|-----------------------16-14-12----16----------------------------------| 
A|--------------------------------14-------------------------------------| 
E|-----------------------------------------------------------------------| 


End: 

e|-------------------------------------------------------------------| 
B|-14-16-14-16-14----------14---16-14--------------------------------| 
G|-14-16-14-16-14----------14---16-14--------------------------------| 
D|----------------16-14-16----16------16-16--------------------------| 
A|-------------------------------------------------------------------| 
E|-------------------------------------------------------------------| 



e|-------14---------14--------------17b19r17-17b19r17-17b19r17-------| 
B|-17b19---14-17b19----14-17b19--14----------------------------------| 
G|-------------------------------------------------------------------| 
D|-------------------------------------------------------------------| 
A|-------------------------------------------------------------------| 
E|-------------------------------------------------------------------| 


End Chorus: 

e|-------------------------------------------------------------------| 
B|-------------------------------------------------------------------| 
G|-----2-----4------2-----4-----2----4-------------------------------| 
D|---2-----4------2-----4-----2----4---------------------------------| 
A|-0-----2------0-----2-----0----2-----------------------------------| 
E|-------------------------------------------------------------------| 



	  

there isn't a video lesson for this song

request
Search
auto scroll beats size up size down change color hide chords drawings
tab show chords e-chords YouTube Clip e-chords hide all tabs e-chords go to top tab