Rob Scallon

home > Rob Scallon

Metal In Inappropriate Places Tab

Rob Scallon

Difficulty: nolevelnolevel

by IronPower4Ever

tuner correct add songbook print version text version save to e-mail
chordsukulelecavacokeyboardtabbassdrumsharmonicsflute Guitar Pro
chords

Metal In Inappropriate Places

  		Title: Metal in Inappropriate Places 
Tempo = 165 
Electric Guitar 

Legend 
L - tied note 
x - dead note 
h - hammer on/pull off 
b - bend 
s - slide 
~ - vibrato 
g - ghost note 
> - accentuated note 
t - trill 
M - palm mute 
. - staccato 
P - popping (bass) 
S - slapping (bass) 
+ - tapping 
W - wide vibrato 
< - fade in 
w - whammy bar 
= - tremolo picking 
v - brush up 
^ - brush down 
V - pick stroke up 
n - pick stroke down 

                                                                        
C |----|----------------------------|----|----------------------------| 
G |----|----------------------------|----|----------------------------| 
D#|----|----------------------------|----|----------------------------| 
A#|----|----------------------------|----|----------------------------| 
F |----|--7M-6M-3-----6M-3M-2-------|----|--7M-6M-3-----6M-3M-2-------| 
C |----|--5M-4M-1-----4M-1M-0-------|----|--5M-4M-1-----4M-1M-0-------| 

                                                      
----------------------------------------------------| 
----------------------------------------------------| 
----------------------------------------------------| 
----------------------------------------------------| 
--7--7--8--8--7--7--------7--7--------7--7--8--8----| 
--------------------8--8--------8--8----------------| 

                              
----------------------------| 
----------------------------| 
----------------------------| 
----------------------------| 
--10M9M-7-----9M-7M-6-------| 
--8M-7M-5-----7M-5M-4-------| 

                                                      
----------------------------------------------------| 
----------------------------------------------------| 
----------------------------------------------------| 
----------------------------------------------------| 
--7--7--8--8--7--7--------7--7--------7--7--8--8----| 
--------------------8--8--------8--8----------------| 

                               
----------------------------|| 
----------------------------|| 
----------------------------|| 
----------------------------|| 
--10M9M-7-----9M-7M-6M-3M---|| 
--8M-7M-5-----7M-5M-4M-1M---|| 

                                                     
---------------------------------------------------| 
---------------------------------------------------| 
o--------------------------------------------------| 
o--------------------------------------------------| 
-------------2M----3M----2-------------------------| 
-4M-3M-2M-1M-0M----1M----0-----0M----4M-3M-2M-1M---| 

                                                      
----------------------------------------------------| 
----------------------------------------------------| 
----------------------------------------------------| 
----------------------------------------------------| 
--------------2M----3M----2-------------------------| 
--5M-4M-3M-2M-0M----1M----0-----0M----4M-3M-2M-1M---| 

                                                      
----------------------------------------------------| 
----------------------------------------------------| 
----------------------------------------------------| 
----------------------------------------------------| 
--------------2M----3M----2-------------------------| 
--4M-3M-2M-1M-0M----1M----0-----0M----4M-3M-2M-1M---| 

                              
---------------------------|| 
---------------------------|| 
--------------------------o|| 
-----2-----------3--------o|| 
--2M-2--------3M-3---------|| 
--0M-0--------1M-1---------|| 

                                                                                 
--4-----------------------------------------------------------------------------| 
--------4-----------------------------------------------------------------------| 
--------------4-----------------------------------------------------------------| 
--------------------4-----------------------------------------------------------| 
--------------------------4-----------2M----------------3M----------------2-----| 
--------------------------------4-----0M----------------1M----------------0-----| 

                                                                      
--------------------------------------------------------------------| 
--------------------------------------------------------------------| 
--------------------------------------------------------------------| 
--------------------------------------------------------------------| 
--------------------------------------------------------------------| 
------------0M----------------4M-------3M-------2M------------------| 

                                                                                 
--4-----------------------------------------------------------------------------| 
--------4-----------------------------------------------------------------------| 
--------------4-----------------------------------------------------------------| 
--------------------4-----------------------------------------------------------| 
--------------------------4-----------2M----------------3M----------------2-----| 
--------------------------------4-----0M----------------1M----------------0-----| 

                                                                      
--------------------------------------------------------------------| 
--------------------------------------------------------------------| 
--------------------------------------------------------------------| 
--------------------------------------------------------------------| 
--------------------------------------------------------------------| 
------------0M----------------4M-------3M-------2M------------------| 

                                                                                 
--4-----------------------------------------------------------------------------| 
--------4-----------------------------------------------------------------------| 
--------------4-----------------------------------------------------------------| 
--------------------4-----------------------------------------------------------| 
--------------------------4-----------2M----------------3M----------------2-----| 
--------------------------------4-----0M----------------1M----------------0-----| 

                                                                      
--------------------------------------------------------------------| 
--------------------------------------------------------------------| 
--------------------------------------------------------------------| 
--------------------------------------------------------------------| 
--------------------------------------------------------------------| 
------------0M----------------4M-------3M-------2M-------1M---------| 

                              
----------------------------| 
----------------------------| 
----------------------------| 
-----2-----------3----------| 
--2M-2--------3M-3----------| 
--0M-0--------1M-1----------| 

                                                      
----------------------------------------------------| 
----------------------------------------------------| 
----------------------------------------------------| 
----------------------------------------------------| 
--------------2M----3M----2-------------------------| 
--4M-3M-2M-1M-0M----1M----0-----0M----4M-3M-2M-1M---| 

                                                      
----------------------------------------------------| 
----------------------------------------------------| 
----------------------------------------------------| 
----------------------------------------------------| 
--------------2M----3M----2-------------------------| 
--5M-4M-3M-2M-0M----1M----0-----0M----4M-3M-2M-1M---| 

                                                      
----------------------------------------------------| 
----------------------------------------------------| 
----------------------------------------------------| 
----------------------------------------------------| 
--------------2M----3M----2-------------------------| 
--4M-3M-2M-1M-0M----1M----0-----0M----4M-3M-2M-1M---| 

                               =     =  =       =  =  =  =      
----------------------------|----------------|----------------| 
----------------------------|----------------|----------------| 
----------------------------|----------------|----------------| 
-----2-----------3----------|----------------|----------------| 
--2M-2--------3M-3----------|----------------|----------------| 
--0M-0--------1M-1----------|--5-----7--8----|--7--5--7--4----| 

                              
----------------------------| 
----------------------------| 
----------------------------| 
----------------------------| 
--6M-7--6M-3M-6M-3M-2-------| 
--4M-5--4M-1M-4M-1M-0-------| 

                                                       =     =  =      
----------------------------------------------------|----------------| 
----------------------------------------------------|----------------| 
----------------------------------------------------|----------------| 
----------------------------------------------------|----------------| 
--6M-6M-7-----6M----3M----6M----3M----2-------------|----------------| 
--4M-4M-5-----4M----1M----4M----1M----0-------------|--5-----7--8----| 

  =                                                        
----------------------------|----------------------------| 
----------------------------|----------------------------| 
----------------------------|----------------------------| 
----------------------------|----------------------------| 
----------------------------|--6M-7--6M-3M-6M-3M-2-------| 
--7-----4s----12h13h12s-----|--4M-5--4M-1M-4M-1M-0-------| 

                          =                            =     =  =      
----------------------------------------------------|----------------| 
----------------------------------------------------|----------------| 
----------------------------------------------------|----------------| 
----------------------------------------------------|----------------| 
--6M-6M-7-----6M----3M------------------------------|----------------| 
--4M-4M-5-----4M----1M----4-------------------------|--5-----7--8----| 

  =  =  =  =       =     =  =                        =     =  =      
----------------|----------------|----------------|----------------| 
----------------|----------------|----------------|----------------| 
----------------|----------------|----------------|----------------| 
----------------|----------------|----------------|----------------| 
----------------|----------------|--3M-6--3M-2----|----------------| 
--7--5--7--5----|--4-----5--4----|--1M-4--1M-0----|--5-----7--8----| 

  = 
----------------------------|----------------------------| 
----------------------------|----------------------------| 
----------------------------|----------------------------| 
----------------------------|----------------------------| 
----------------------------|--6M-7--6M-3M-6M-3M-2-------| 
--7-----4s----12h13h12------|--4M-5--4M-1M-4M-1M-0-------| 


----------------------------------------------------|| 
----------------------------------------------------|| 
----------------------------------------------------|| 
----------------------------------------------------|| 
--6M-6M-7-----6M----3M----2-----2M----2-----2M------|| 
--4M-4M-5-----4M----1M----0-----0M----0-----0M------|| 


---------------------------------------------------|---------------------------||| 
---------------------------------------------------|---------------------------||| 
o--------------------------------------------------|--------------------------o||| 
o--------------------------------------------------|--------------------------o||| 
-3M----3-----------3M----2--2--3--3--2--2----------|--0M-0--------2M-2---------||| 
-5M----5-----------5M----------------------4--4----|--1M-1--------0M-0---------||| 


---------------------------------------------------|---------------------------||| 
---------------------------------------------------|---------------------------||| 
o--------------------------------------------------|--------------------------o||| 
o--------------------------------------------------|--------------------------o||| 
-3M----3-----------3M----2--2--3--3--2--2----------|--0M-0--------2M-2---------||| 
-5M----5-----------5M----------------------4--4----|--1M-1--------0M-0---------||| 


---------------------------------------------------|----|| 
---------------------------------------------------|----|| 
o--------------------------------------------------|----|| 
o--------------------------------------------------|----|| 
-3M----3-------------------------------------------|----|| 
-5M----5-------------------------------------------|----|| 
	  

Search Paypal
auto scroll beats size up size down change color hide chords drawings
tab show chords e-chords YouTube Clip e-chords hide all tabs e-chords go to top tab