Rob Scallon

home > Rob Scallon

The Down-tuning Experiment Tab

Rob Scallon

Difficulty: nolevelnolevel

by gustsilva

tuner correct add songbook print version text version save to e-mail
chordsukulelecavacokeyboardtabbassdrumsharmonicsflute Guitar Pro
chords

The Down-tuning Experiment

  		

e|---------------------------------------------------------------------------| 
B|---------------------------------------------------------------------------| 
G|---------------------------------------------------------------------------| 
D|--6-7-----------------------6-7----------6-7-------------------------------| 
A|------8----------------6-7------8-7----------8-----------------6-7-------6-| 
E|----------5-8-5-0-5-0---------------0------------5-8-5-0-5-0-5-------5-8---| 

e|---------------------------------------------------------------------------| 
B|---------------------------------------------------------------------------| 
G|---------------------------------------------------------------------------| 
D|---------------------------------------------------------------------------| 
A|-7-1-3-4----------2-3-1--1--1--1---1-1-1-1-2---2-3-2-0-2-3-1--1--1--1------| 
E|---3-5-6--------------x--x--x--x---x-x-x-x-0---------------x--x--x--x------| 

e|----------0----------------------------------------------------------------| 
B|--------------0------------------------------------------------------------| 
G|---------------0-----------------------------------------------------------| 
D|----------------0----------------------------------------------------------| 
A|-------2---------2---------------------------------------------------------| 
E|-2--4----------------0-----------------------------------------------------| 
	  

Search Paypal
auto scroll beats size up size down change color hide chords drawings
tab show chords e-chords YouTube Clip e-chords hide all tabs e-chords go to top tab