Rob Scallon

home > Rob Scallon

Capo On The 14th Fret Metal Tab

Rob Scallon

Difficulty: nolevelnolevel

by jov%2Dcorrea

tuner correct add songbook print version text version save to e-mail
chordsukulelecavacokeyboardtabbassdrumsharmonicsflute Guitar Pro
chords

Capo On The 14th Fret Metal

  		

 


Legend 
L - tied note 
x - dead note 
h - hammer on/pull off 
b - bend 
s - slide 
~ - vibrato 
g - ghost note 
> - accentuated note 
t - trill 
M - palm mute 
. - staccato 
P - popping (bass) 
S - slapping (bass) 
+ - tapping 
W - wide vibrato 
< - fade in 
w - whammy bar 
= - tremolo picking 
v - brush up 
^ - brush down 
V - pick stroke up 
n - pick stroke down 

                                                         
E |----------------------------------------------------| 
B |----------------------------------------------------| 
G |----------------------------------------------------| 
D |--2h-3h-2-----2-------------------------------------| 
A |-----------3M----3M-2h-3h-2-----2-------------------| 
E |-----------------------------4M----4M-1h-4h-1h-0h---| 

                                                      
----------------------------------------------------| 
----------------------------------------------------| 
----------------------------------------------------| 
--------------------------2-----------2-------------| 
--------2h-3--------------2-----------2-------------| 
--1h-0--------0M-0M-0M-0M-0-----0M-0M-0-----0M-0M---| 

                                                      
----------------------------------------------------| 
----------------------------------------------------| 
----------------------------------------------------| 
--2h-3h-2-----2-------------------------------------| 
-----------3M----3M-2h-3h-2-----2-------------------| 
-----------------------------4M----4M-1h-4h-1h-0h---| 

                                                      
----------------------------------------------------| 
----------------------------------------------------| 
--------------------------0-----------0-------------| 
--------2h-3--------------2-----------2-------------| 
--------------------------3-----------3-------------| 
--1h-0--------1M-1M-1M-1M-1-----1M-1M-1-----1M-1M---| 

                                                      
----------------------------------------------------| 
----------------------------------------------------| 
----------------------------------------------------| 
--2h-3h-2-----2-------------------------------------| 
-----------3M----3M-2h-3h-2-----2-------------------| 
-----------------------------4M----4M-1h-4h-1h-0h---| 

                                                                             
----------------------------------------------------|--0-----------0-------| 
----------------------------------------------------|--0--------------0----| 
----------------------------------------------------|--0-------------------| 
--------------------------2-----------2-------------|--2--------2----------| 
--------2h-3--------------2-----------2-------------|--3--------3----------| 
--1h-0--------0M-0M-0M-0M-0-----0M-0M-0-----0M-0M---|--1--------1----------| 

                               
----------------------------|| 
----------------------------|| 
--0-------------------------|| 
--2-----------------1-------|| 
--3-----------2M-2M-2-------|| 
--3-----------2M-2M-2-------|| 

                                                     
---------------------------------------------------| 
---------------------------------------------------| 
o--------------------------------------------------| 
o--------------------------------------------------| 
----------1--------1--------1--------1-----2-------| 
-0M-0M-0M-0-----0M-0-----0M-0-----0M-0-----0-------| 

                                                      
----------------------------------------------------| 
----------------------------------------------------| 
----------------------------------------------------| 
----------------------------------------------------| 
--------------------------------------2M-3M-2M-0M---| 
--0M-0M-0M-0M-1M-4M-1M-0M-0M-0M-0M-0M---------------| 

                                                      
----------------------------------------------------| 
----------------------------------------------------| 
----------------------------------------------------| 
----------------------------------------------------| 
-----------1--------1--------1--------1-----2-------| 
--0M-0M-0M-0-----0M-0-----0M-0-----0M-0-----0-------| 

              v 
--------------0------------||| 
--------------0------------||| 
--------------0-----------o||| 
--------3-----0-----2-----o||| 
-----3M-3-----------2------||| 
--0M-1M-1--------0M-0------||| 


---------------------------------------------------| 
---------------------------------------------------| 
o--------------------------------------------------| 
o--------------------------------------------------| 
----------0M-0M-0M-0M----0~------------------------| 
-0M-0M-0M----------------------------0M-0M-0M-0M---| 


----------------------------------------------------| 
----------------------------------------------------| 
----------------------------------------------------| 
----------------------------------------------------| 
-----------0M-0M-0M-0M----0~------------------------| 
--0M-0M-0M----------------------------0M-0M-0M-0M---| 


----------------------------------------------------| 
----------------------------------------------------| 
----------------------------------------------------| 
----------------------------------------------------| 
-----------0M-0M-0M-0M----0~------------------------| 
--0M-0M-0M----------------------------0M-0M-0M-0M---| 


---------------------------------------------------|| 
---------------------------------------------------|| 
--------------------------------------------------o|| 
--------------------------------------------------o|| 
---------------------------------------------------|| 
--0M-0M-0M-0M-0M-0M-0M-0M-0M-0M-0M-0M-0M-0M-0M-0M--|| 


----------------------------------------------------| 
----------------------------------------------------| 
----------------------------------------------------| 
--2h-3h-2-----2-------------------------------------| 
-----------3M----3M-2h-3h-2-----2-------------------| 
-----------------------------4M----4M-1h-4h-1h-0h---| 


----------------------------------------------------| 
----------------------------------------------------| 
----------------------------------------------------| 
--------------------------2-----------2-------------| 
--------2h-3--------------2-----------2-------------| 
--1h-0--------0M-0M-0M-0M-0-----0M-0M-0-----0M-0M---| 


----------------------------------------------------| 
----------------------------------------------------| 
----------------------------------------------------| 
--2h-3h-2-----2-------------------------------------| 
-----------3M----3M-2h-3h-2-----2-------------------| 
-----------------------------4M----4M-1h-4h-1h-0h---| 


----------------------------------------------------| 
----------------------------------------------------| 
--------------------------0-----------0-------------| 
--------2h-3--------------2-----------2-------------| 
--------------------------3-----------3-------------| 
--1h-0--------1M-1M-1M-1M-1-----1M-1M-1-----1M-1M---| 


----------------------------------------------------| 
----------------------------------------------------| 
----------------------------------------------------| 
--2h-3h-2-----2-------------------------------------| 
-----------3M----3M-2h-3h-2-----2-------------------| 
-----------------------------4M----4M-1h-4h-1h-0h---| 


----------------------------------------------------|--0L---| 
----------------------------------------------------|--0L---| 
----------------------------------------------------|--0L---| 
--------------------------2-----------2-------------|--2L---| 
--------2h-3--------------2-----------2-------------|--3L---| 
--1h-0--------0M-0M-0M-0M-0-----0M-0M-0-----0M-0M---|--1L---| 


--0-----------0-------|--0----|----------------------------| 
--0--------------0----|--0----|----------------------------| 
--0-------------------|--0----|--0-------------------------| 
--2--------2----------|--2----|--1-------------------------| 
--3--------3----------|--3----|--2-----------1M-1M-1-------| 
--1--------1----------|--3----|--2-----------1M-1M-1-------| 


----------------------------------------------------| 
----------------------------------------------------| 
----------------------------------------------------| 
--2-----------2-----------2-----------2-------------| 
--2-----------2-----------2-----------2-------------| 
--0-----0M-0M-0-----0M-0M-0-----0M-0M-0-----0M-0M---| 


----------------------------------------------------| 
----------------------------------------------------| 
----------------------------------------------------| 
--2-----------2-----------2-----------2-------------| 
--2-----------2-----------2-----------2-------------| 
--0-----0M-0M-0-----0M-0M-0-----0M-0M-0-----0M-0M---| 


----------------------------------------------------| 
----------------------------------------------------| 
----------------------------------------------------| 
--5-----------5-----------5-----------5-------------| 
--3-----------3-----------3-----------3-------------| 
--3-----3M-3M-3-----3M-3M-3-----3M-3M-3-----3M-3M---| 


----------------------------------------------------| 
----------------------------------------------------| 
----------------------------------------------------| 
--4-----------4-----------3-----------3-------------| 
--2-----------2-----------1-----------1-------------| 
--2-----2M-2M-2-----2M-2M-1-----1M-1M-1-----1M-1M---| 


----------------------------------------------------| 
----------------------------------------------------| 
----------------------------------------------------| 
--2-----------2-----------2-----------2-------------| 
--2-----------2-----------2-----------2-------------| 
--0-----0M-0M-0-----0M-0M-0-----0M-0M-0-----0M-0M---| 


----------------------------------------------------| 
----------------------------------------------------| 
----------------------------------------------------| 
--2-----------2-----------2-----------2-------------| 
--2-----------2-----------2-----------2-------------| 
--0-----0M-0M-0-----0M-0M-0-----0M-0M-0-----0M-0M---| 


----------------------------------------------------| 
----------------------------------------------------| 
----------------------------------------------------| 
--5-----------5-----------5-----------5-------------| 
--3-----------3-----------3-----------3-------------| 
--3-----3M-3M-3-----3M-3M-3-----3M-3M-3-----3M-3M---| 


----------------------------------------------------| 
----------------------------------------------------| 
----------------------------------------------------| 
--4-----------4-----------3-----------3-------------| 
--2-----------2-----------1-----------1-------------| 
--2-----2M-2M-2-----2M-2M-1-----1M-1M-1-----1M-1M---| 


----------------------------------------------------| 
----------------------------------------------------| 
----------------------------------------------------| 
--2h-3h-2-----2-------------------------------------| 
-----------3M----3M-2h-3h-2-----2-------------------| 
-----------------------------4M----4M-1h-4h-1h-0h---| 


----------------------------------------------------| 
----------------------------------------------------| 
----------------------------------------------------| 
--------------------------2-----------2-------------| 
--------2h-3--------------2-----------2-------------| 
--1h-0--------0M-0M-0M-0M-0-----0M-0M-0-----0M-0M---| 


----------------------------------------------------| 
----------------------------------------------------| 
----------------------------------------------------| 
--2h-3h-2-----2-------------------------------------| 
-----------3M----3M-2h-3h-2-----2-------------------| 
-----------------------------4M----4M-1h-4h-1h-0h---| 


----------------------------------------------------| 
----------------------------------------------------| 
--------------------------0-------------------------| 
--------2h-3--------------2-------------------------| 
--------------------------3-------------------------| 
--1h-0--------1M-1M-1M-1M-1-------------------------| 


----------------------------------------------------| 
----------------------------------------------------| 
----------------------------------------------------| 
--2h-3h-2-----2-------------------------------------| 
-----------3M----3M-2h-3h-2-----2-------------------| 
-----------------------------4M----4M-1h-4h-1h-0h---| 


----------------------------------------------------|--0-----------0-------| 
----------------------------------------------------|--0--------------0----| 
----------------------------------------------------|--0-------------------| 
--------------------------2-----------2-------------|--2--------2----------| 
--------2h-3--------------2-----------2-------------|--3--------3----------| 
--1h-0--------0M-0M-0M-0M-0-----0M-0M-0-----0M-0M---|--1--------1----------| 


----------------------------| 
----------------------------| 
--0-------------------------| 
--2-----------------1-------| 
--3-----------2M-2M-2-------| 
--3-----------2M-2M-2-------| 


----------------------------------------------------| 
----------------------------------------------------| 
----------------------------------------------------| 
--2h-3h-2-----2-------------------------------------| 
-----------3M----3M-2h-3h-2-----2-------------------| 
-----------------------------4M----4M-1h-4h-1h-0h---| 


----------------------------------------------------| 
----------------------------------------------------| 
----------------------------------------------------| 
--------------------------2-----------2-------------| 
--------2h-3--------------2-----------2-------------| 
--1h-0--------0M-0M-0M-0M-0-----0M-0M-0-----0M-0M---| 


----------------------------------------------------| 
----------------------------------------------------| 
----------------------------------------------------| 
--2h-3h-2-----2-------------------------------------| 
-----------3M----3M-2h-3h-2-----2-------------------| 
-----------------------------4M----4M-1h-4h-1h-0h---| 


----------------------------------------------------| 
----------------------------------------------------| 
--------------------------0-----------0-------------| 
--------2h-3--------------2-----------2-------------| 
--------------------------3-----------3-------------| 
--1h-0--------1M-1M-1M-1M-1-----1M-1M-1-----1M-1M---| 


----------------------------------------------------| 
----------------------------------------------------| 
----------------------------------------------------| 
--2h-3h-2-----2-------------------------------------| 
-----------3M----3M-2h-3h-2-----2-------------------| 
-----------------------------4M----4M-1h-4h-1h-0h---| 


----------------------------------------------------|--0-----------0-------| 
----------------------------------------------------|--0--------------0----| 
----------------------------------------------------|--0-------------------| 
--------------------------2-----------2-------------|--2--------2----------| 
--------2h-3--------------2-----------2-------------|--3--------3----------| 
--1h-0--------0M-0M-0M-0M-0-----0M-0M-0-----0M-0M---|--1--------1----------| 


----------------------------|| 
----------------------------|| 
--0-------------------------|| 
--2-------------------------|| 
--3-----------3M-2M-1-------|| 
--3-----------3M-2M-1-------|| 


---------------------------------------------------| 
---------------------------------------------------| 
o--------------------------------------------------| 
o--------------------------------------------------| 
----1--------1--------1--------1--------1----------| 
-0M-0-----0M-0-----0M-0-----0M-0-----0M-0-----0M---| 


---------------------------------------------------|| 
---------------------------------------------------|| 
--------------------------------------------------o|| 
--------------------------------------------------o|| 
--1--------1--------1-----2------------------------|| 
--0-----0M-0-----0M-0-----0-----0M-0M-1M-4M-1M-0M--|| 


----------------------------------------------------| 
----------------------------------------------------| 
----------------------------------------------------| 
-----2--------2--------2--------2--------2----------| 
-----1--------1--------1--------1--------1----------| 
--0M-0-----0M-0-----0M-0-----0M-0-----0M-0-----0M---| 


----------------------------------------------------| 
----------------------------------------------------| 
----------------------------------------------------| 
--2--------2--------2-----2-------------------------| 
--1--------1--------1-----2-------------------------| 
--0-----0M-0-----0M-0-----0-----0M-0M-1M-4M-1M-0M---| 


----------------------------------------------------| 
----------------------------------------------------| 
----------------------------------------------------| 
-----2--------2--------2--------2--------2----------| 
-----1--------1--------1--------1--------1----------| 
--0M-0-----0M-0-----0M-0-----0M-0-----0M-0-----0M---| 


----------------------------------------------------|----|| 
----------------------------------------------------|----|| 
--------------------------4-------------------------|----|| 
--2--------2--------2-----2-------------------------|----|| 
--1--------1--------1-----2-------------------------|----|| 
--0-----0M-0-----0M-0-----0-------------------------|----|| 






Solo: 

                                                                              
-----------------------------------------------------------------0--3--7----| 
----------------------------------------------------------------------------| 
----------------------------------------------------------------------------| 
----------------------------------------------------------------------------| 
----------------------------------------------------------------------------| 
----------------------------------------------------------------------------| 

for the highest note in this run, hit the pick roughly around where the octave is, I couldn't tab this  
as it's not on the fretboard 
                                                                            
--0--7--3--0--3--7--0--7--3--0--3--7--0--7--3--0--3--7--0--7--3--0--3--7----| 
----------------------------------------------------------------------------| 
----------------------------------------------------------------------------| 
----------------------------------------------------------------------------| 
----------------------------------------------------------------------------| 
----------------------------------------------------------------------------| 

                                                                                 
--0-----7-----3-----0-----3-----7-----0-----7-----3----------------------------- 
--------------------------------------------------------0--------4--------5~---- 
-------------------------------------------------------------------------------- 
-------------------------------------------------------------------------------- 
-------------------------------------------------------------------------------- 
-------------------------------------------------------------------------------- 

                                                                      
--------------------------------------------------------------------| 
--------------------------------------------------------------------| 
------------------------------------------------0-----0-----4-------| 
--------------------------------------------------------------------| 
--------------------------------------------------------------------| 
--------------------------------------------------------------------| 

                                               
----------------------------|----------------| 
----------------------------|--------4~------| 
--5~----------------5~-4----|--5~------------| 
----------------------------|----------------| 
----------------------------|----------------| 
----------------------------|----------------| 

                                                      
----------------------------------------------------| 
--5~----------------5--7--8~----------------5--7----| 
----------------------------------------------------| 
----------------------------------------------------| 
----------------------------------------------------| 
----------------------------------------------------| 

                                                                            
-----------------------------------7----------------|----------|----------| 
--8--------7--------5-----4-----------------4-------|--5~-1----|--1s-0----| 
----------------------------------------------------|----------|----------| 
----------------------------------------------------|----------|----------| 
----------------------------------------------------|----------|----------| 
----------------------------------------------------|----------|----------| 

  W       W 
--0L---|--0----| 
--0L---|--0----| 
--0L---|--0----| 
--0L---|--0----| 
-------|-------| 
-------|-------| 
	  

Search Paypal
auto scroll beats size up size down change color hide chords drawings
tab show chords e-chords YouTube Clip e-chords hide all tabs e-chords go to top tab