Rob Scallon

home > Rob Scallon

A Very Little Guitar Tab

Rob Scallon

Difficulty: nolevelnolevel

by ubirbomfim

tuner correct add songbook print version text version save to e-mail
chordsukulelecavacokeyboardtabbassdrumsharmonicsflute Guitar Pro
chords

A Very Little Guitar

  		Title: A very little guitar. 
Tempo = 93 
Nylon Guitar 

Legend 
L - tied note 
x - dead note 
h - hammer on/pull off 
b - bend 
s - slide 
~ - vibrato 
g - ghost note 
> - accentuated note 
t - trill 
M - palm mute 
. - staccato 
P - popping (bass) 
S - slapping (bass) 
+ - tapping 
W - wide vibrato 
< - fade in 
w - whammy bar 
= - tremolo picking 
v - brush up 
^ - brush down 
V - pick stroke up 
n - pick stroke down 

                                                                                 
E |----------------------------------------------------------------------------- 
B |--0h-------1h-------0h-------1--------------------------------------------x-- 
G |--0-----------------------------------x-----------------------------x-------- 
D |--0h-------2h-------0h-------2--------x-----------------------x-------------- 
A |--3-----------------------------------x-----------------x-------------------- 
E |----------------------------------------------------------------------------- 

                                                                         
-----------------------------------------------------------------------| 
---------------3-----------------xg-------1----------------------------| 
---------------0--------------------------0----------------------------| 
---------------4-----------------xg-------2----------------------------| 
---------------5-----------------xg-------3----------------------------| 
-----------------------------------------------------------------------| 

                                                      
----------------------------------------------------| 
--0-----------0-----------------0-----0-------------| 
--0--------------0-----------0----------------------| 
--0-----------------0-----0-----------0-------------| 
--2--------2-----------x----------------------------| 
-----------------------3-----------3L-3h----0-------| 

                                                                                 
-------------------------------------------------------------------------------- 
--0h-------1h-------0h-------1--------------------------------------------x----- 
--0-----------------------------------x-----------------------------x----------- 
--0h-------2h-------0h-------2--------x-----------------------x----------------- 
--3-----------------------------------x-----------------x----------------------- 
-------------------------------------------------------------------------------- 

                                                                      
--------------------------------------------------------------------| 
------------3-----------------xg-------1----------------------------| 
------------0--------------------------0----------------------------| 
------------4-----------------xg-------2----------------------------| 
------------5-----------------xg-------3----------------------------| 
--------------------------------------------------------------------| 

                                                      
--------------------------------------3-------------| 
--0-----------0-----------------0-------------------| 
--0--------------0-----------0----------------------| 
--0-----------------0-----0-------------------------| 
--2--------2-----------x----------------------------| 
-----------------------3-----------3L-3h----0-------| 

  ^                                                                              
--0-----------------------------------------------------------------------3----- 
--0h-------1h-------0h-------1--------------------------------------0----------- 
--0-----------------------------------------------------------0----------------- 
--0h-------2h-------0h-------2-------------------------------------------------- 
--3----------------------------------------------------------------------------- 
--------------------------------------0-----------------0----------------------- 

                                                                      
--------------------------------------------------------------------| 
------------3-----------------xg-------1----------------------------| 
------------0--------------------------0----------------------------| 
------------4-----------------xg-------2----------------------------| 
------------5-----------------xg-------3----------------------------| 
--------------------------------------------------------------------| 

                                                      
--------------3-----------------3-----2h-3----------| 
--0--------------0-----------0--------------0-------| 
--0-----------------0-----0-----------------0-------| 
--0--------------------------------0--------0-------| 
--2--------2-----------x----------------------------| 
-----------------------3----------------------------| 

  ^                                                                              
--0-----------------------------------------------------------------------3----- 
--0h-------1h-------0h-------1--------------------------------------0----------- 
--0-----------------------------------------------------------0----------------- 
--0h-------2h-------0h-------2-------------------------------------------------- 
--3----------------------------------------------------------------------------- 
--------------------------------------0-----------------0----------------------- 

                                                                      
--------------------------------------------------------------------| 
------------3-----------------xg-------1----------------------------| 
------------0--------------------------0----------------------------| 
------------4-----------------xg-------2----------------------------| 
------------5-----------------xg-------3----------------------------| 
--------------------------------------------------------------------| 

                                                      
--------------3-----------------3-----3-------------| 
--0--------------0-----------0--------------0-------| 
--0-----------------0-----0-----------------0-------| 
--0--------------------------------0--------0-------| 
--2--------2-----------0----------------------------| 
-----------------------3----------------------------| 

                                                      
----------------------------------------------------| 
--------0--0--------------0--0--------x>------------| 
--------0--0--x--x--------0--0--x--x--x>----x--x----| 
--------4--4--x--x--------4--4--x--x--x>----x--x----| 
-----5-----5--x--x-----5-----5--x--x--x>----x--x----| 
--7-----------------7-------------------------------| 

                                                      
----------------------------------------------------| 
--------0--0--------------0--0----------------------| 
--------0--0--x--x--------0--0--x--x--x--x--x--x----| 
--------4--4--x--x--------4--4--x--5--x--x--x--x----| 
-----5-----5--x--x-----5-----5--x--x--x--x--x--x----| 
--7-----------------7--------------------3----------| 

                                                      
----------------------------------------------------| 
--------0--0--------------0--0----------------------| 
--------0--0--x--x--------0--0--x--x--x--x--x-------| 
--------4--4--x--x--------4--4--0--7s-7--7--7--0----| 
-----5-----5--x--x-----5-----5--x--x--x--x--x-------| 
--7-----------------7-------------------------------| 

                                                      
----------------------------------------------------| 
--------0--0--------0--0--0--0--0--0--0--0--0-------| 
--------0--0--x--x--x--x--x--------------------x----| 
--------4--4--x--x--9s-9--9--9--9--9--9--7--5--x----| 
-----5-----5--x--x--x--x--x-------------------------| 
--7-------------------------------------------------| 

  ^                                                                              
--0-----------------------------------------------------------------------3----- 
--0h-------1h-------0h-------1--------------------------------------0----------- 
--0-----------------------------------------------------------0----------------- 
--0h-------2h-------0h-------2-------------------------------------------------- 
--3----------------------------------------------------------------------------- 
--------------------------------------0-----------------0----------------------- 

                                                                      
--------------------------------------------------------------------| 
------------3-----------------xg-------1----------------------------| 
------------0--------------------------0----------------------------| 
------------4-----------------xg-------2----------------------------| 
------------5-----------------xg-------3----------------------------| 
--------------------------------------------------------------------| 

                                                      
--------------3-----------------3-----2h-3----------| 
--0--------------0-----------0--------------0-------| 
--0-----------------0-----0-----------------0-------| 
--0--------------------------------0--------0-------| 
--2--------2-----------x----------------------------| 
-----------------------3----------------------------| 

  ^                                                                              
--0-----------------------------------------------------------------------3----- 
--0h-------1h-------0h-------1--------------------------------------0----------- 
--0-----------------------------------------------------------0----------------- 
--0h-------2h-------0h-------2-------------------------------------------------- 
--3----------------------------------------------------------------------------- 
--------------------------------------0-----------------0----------------------- 

                                                                      
--------------------------------------------------------------------| 
------------3-----------------xg-------1----------------------------| 
------------0--------------------------0----------------------------| 
------------4-----------------xg-------2----------------------------| 
------------5-----------------xg-------3----------------------------| 
--------------------------------------------------------------------| 

                                                      
--------------5-----------------5-----5h-7----------| 
--0--------------0-----------0--------------0-------| 
--0-----------------0-----0-----------------0-------| 
--0--------------------------------0--------0-------| 
--2--------2-----------x----------------------------| 
-----------------------3----------------------------| 

  ^                                                                              
--0-----------------------------------------------------------------------7----- 
--0h-------1h-------0h-------1--------------------------------------0----------- 
--0-----------------------------------------------------------0----------------- 
--0h-------2h-------0h-------2-------------------------------------------------- 
--3----------------------------------------------------------------------------- 
--------------------------------------0-----------------0----------------------- 

                                                                      
--------------------------------------------------------------------| 
------------3-----------------xg-------1----------------------------| 
------------0--------------------------0----------------------------| 
------------4-----------------xg-------2----------------------------| 
------------5-----------------xg-------3----------------------------| 
--------------------------------------------------------------------| 

                                                      
--------------5-----------------------5h-7----------| 
--0--------------0--------------0-----------0-------| 
--0-----------------0--------0--------------0-------| 
--0-----------------------0--------0--------0-------| 
--2--------2-----------x----------------------------| 
-----------------------3----------------------------| 

  ^                                                                              
--0-----------------------------------------------------------------------3----- 
--0h-------1h-------0h-------1--------------------------------------0----------- 
--0-----------------------------------------------------------0----------------- 
--0h-------2h-------0h-------2-------------------------------------------------- 
--3----------------------------------------------------------------------------- 
--------------------------------------0-----------------0----------------------- 

                                                                      
--------------------------------------------------------------------| 
------------3-----------------xg-------1----------------------------| 
------------0--------------------------0----------------------------| 
------------4-----------------xg-------2----------------------------| 
------------5-----------------xg-------3----------------------------| 
--------------------------------------------------------------------| 

                                                      
--------------------------------------3-------------| 
--0-----------0-----------------0-----------0-------| 
--0--------------0-----------0--------------0-------| 
--0-----------------0-----0--------0--------0-------| 
--2--------2-----------x----------------------------| 
-----------------------3----------------------------| 

                                                      
----------------------------------------------------| 
--------0--0--------------0--0--------x>------------| 
--------0--0--x--x--------0--0--x--x--x>----x--x----| 
--------4--4--x--x--------4--4--x--x--x>----x--x----| 
-----5-----5--x--x-----5-----5--x--x--x>----x--x----| 
--7-----------------7-------------------------------| 

                                                      
----------------------------------------------------| 
--------0--0--------------0--0----------------------| 
--------0--0--x--x--------0--0--x--x--x--x--x--x----| 
--------4--4--x--x--------4--4--x--5--x--x--x--x----| 
-----5-----5--x--x-----5-----5--x--x--x--x--x--x----| 
--7-----------------7--------------------3----------| 

                                                      
----------------------------------------------------| 
--------0--0--------------0--0----------------------| 
--------0--0--x--x--------0--0--x--x--x--x--x-------| 
--------4--4--x--x--------4--4--0--7s-7--7--7--0----| 
-----5-----5--x--x-----5-----5--x--x--x--x--x-------| 
--7-----------------7-------------------------------| 

                                                      
----------------------------------------------------| 
--------0--0--------------0--0-----0>----0>----0----| 
--------0--0--x--x--------0--0--x--0>-x>-0>-x--0----| 
--------4--4--x--x--------4--4--x--0>-x>-0>-x--0----| 
-----5-----5--x--x-----5-----5----------------------| 
--7-----------------7-------------------------------| 

                                                      
----------------------------------------------------| 
--------0--0--------------0--0-----0>----0>---------| 
--------0--0--x--x--------0--0--x--0>-x--0>-x--x----| 
--------4--4--x--x--------4--4L-4L-4L-4L-4----------| 
-----5-----5--x--x-----5-----5--x-------------------| 
--7-----------------7-------------------------------| 

                                                      
----------------------------------------------------| 
--------0--0--------------0--0----------------------| 
--------0--0--x--x--------0--0--x--x--x--x--x-------| 
--------4--4--x--x--------4--4--0--7s-7--7--7--0----| 
-----5-----5--x--x-----5-----5--x--x--x--x--x-------| 
--7-----------------7-------------------------------| 

                                                      
----------------------------------------------------| 
--------0--0--------0--0--0--0--0--0--0--0--0-------| 
--------0--0--x--x--x--x--x--------------------x----| 
--------4--4--x--x--9s-9--9--9--9--9--9--9--x--x----| 
-----5-----5--x--x--x--x--x-------------------------| 
--7-------------------------------------------------| 

                                                      
----------------------------------------------------| 
--------0--0--------0--0--0--0--0--0--0--0--0-------| 
--------0--0--x--x--x--x--x--------------------x----| 
--------4--4--x--x--9s-9--9--9--9--9--9--7--5--x----| 
-----5-----5--x--x--x--x--x-------------------------| 
--7-------------------------------------------------| 

  ^                                                                              
--------------------------------------------------------------------------3----- 
--0h-------1h-------0h-------1--------------------------------------0----------- 
--0-----------------------------------------------------------0----------------- 
--0h-------2h-------0h-------2-------------------------------------------------- 
--3----------------------------------------------------------------------------- 
--------------------------------------0-----------------0----------------------- 

                                                                      
--------------------------------------------------------------------| 
------------3-----------------xg-------1----------------------------| 
------------0--------------------------0----------------------------| 
------------4-----------------xg-------2----------------------------| 
------------5-----------------xg-------3----------------------------| 
--------------------------------------------------------------------| 

                                                      
--------------3-----------------------3-------------| 
--0--------------0--------------0-----------0-------| 
--0-----------------0--------0--------------0-------| 
--0-----------------------0--------0--------0-------| 
--2--------2-----------x----------------------------| 
-----------------------3----------------------------| 

  ^                                                                              
--0-----------------------------------------------------------------------3----- 
--0h-------1h-------0h-------1--------------------------------------0----------- 
--0-----------------------------------------------------------0----------------- 
--0h-------2h-------0h-------2-------------------------------------------------- 
--3----------------------------------------------------------------------------- 
--------------------------------------0-----------------0----------------------- 

                                                                      
--------------------------------------------------------------------| 
------------3-----------------xg-------1----------------------------| 
------------0--------------------------0----------------------------| 
------------4-----------------xg-------2----------------------------| 
------------5-----------------xg-------3----------------------------| 
--------------------------------------------------------------------| 

                                                      
--------------5-----------------5-----5h-7----------| 
--0--------------0-----------0--------------0-------| 
--0-----------------0-----0-----------------0-------| 
--0--------------------------------0--------0-------| 
--2--------2-----------x----------------------------| 
-----------------------3----------------------------| 

  ^                                                                              
--0-----------------------------------------------------------------------7----- 
--0h-------1h-------0h-------1--------------------------------------0----------- 
--0-----------------------------------------------------------0----------------- 
--0h-------2h-------0h-------2-------------------------------------------------- 
--3----------------------------------------------------------------------------- 
--------------------------------------0-----------------0----------------------- 

                                                                      
--------------------------------------------------------------------| 
------------3-----------------xg-------1----------------------------| 
------------0--------------------------0----------------------------| 
------------4-----------------xg-------2----------------------------| 
------------5-----------------xg-------3----------------------------| 
--------------------------------------------------------------------| 

                                                      
--------------5-----------------------5h-7----------| 
--0--------------0--------------0-----------0-------| 
--0-----------------0--------0--------------0-------| 
--0-----------------------0--------0--------0-------| 
--2--------2-----------x----------------------------| 
-----------------------3----------------------------| 

  ^                                                                              
--0-----------------------------------------------------------------------15s--- 
--0h-------1h-------0h-------1--------------------------------------0----------- 
--0-----------------------------------------------------------0----------------- 
--0h-------2h-------0h-------2-------------------------------------------------- 
--3----------------------------------------------------------------------------- 
--------------------------------------0-----------------0----------------------- 

                                                                      
--------------------------------------------------------------------| 
------------3-----------------xg-------1----------------------------| 
------------0--------------------------0----------------------------| 
------------4-----------------xg-------2----------------------------| 
------------5-----------------xg-------3----------------------------| 
--------------------------------------------------------------------| 

                                                      
--------------3-----------------------3-------------| 
--0--------------0--------------0-----------0-------| 
--0-----------------0--------0--------------0-------| 
--0-----------------------0--------0--------0-------| 
--2--------2-----------x----------------------------| 
-----------------------3----------------------------| 

                                                      
----------------------------------------------------| 
--0h----1h-0--------0--------0--0-----0-----0--0----| 
--0-----------0-----0--------0--0-----0-----0--0----| 
--2-----------2-----2-----------------2-----2--2----| 
--3-----------3-----3-----------------3-------------| 
----------------------------------------------------| 

                                                      
----------------------------------------------------| 
--0h-1h-0h-1--------0--------0-----3-----1-----0----| 
--0-----------0-----0--------------------------0----| 
--2-----------2-----2-----------0-----0-----0-------| 
--3-----------3-----3-------------------------------| 
--0-----------0-----0-------------------------------| 

                                                      
----------------------------------------------------| 
--0h-1h-0h-1--------0--------0--0-----0--------0----| 
--0-----------0-----0--------0--0-----0-----0--0----| 
--2-----------2-----2-----------------2-----2--2----| 
--3-----------3-----3-----------------3-----3-------| 
--0-----------------------------------0-----3-------| 

                                                      
----------------------------------------------------| 
--0--------0--------0--------0--0-----0-----0--0----| 
--0--------0--------0--------0--0-----0-----0--0----| 
--4s-------4--------4-----------------4-----4--4----| 
--5s-------5--------5-----------------5-------------| 
--5s-------5----------------------------------------| 

                                                      
----------------------------------------------------| 
--0h----1h-0--------0--------0--0-----0-----0--0----| 
--0-----------0-----0--------0--0-----0-----0--0----| 
--2-----------2-----2-----------------2-----2--2----| 
--3-----------3-----3-----------------3-------------| 
----------------------------------------------------| 

                                                      
----------------------------------------------------| 
--0h-1h-0h-1--------0--------0-----3-----1-----0----| 
--0-----------0-----0--------------------------0----| 
--2-----------2-----2-----------0-----0-----0-------| 
--3-----------3-----3-------------------------------| 
--0-----------0-----0-------------------------------| 

                                                      
----------------------------------------------------| 
--0h-1h-0h-1--------0--------0--0-----0--------0----| 
--0-----------0-----0--------0--0-----0-----0--0----| 
--2-----------2-----2-----------------2-----2--2----| 
--3-----------3-----3-----------------3-----3-------| 
--0-----------------------------------0-----3-------| 

                                                      
----------------------------------------------------| 
--0--------0--------0--------0--0-----0-------------| 
--0--------0--------0--------0--0-----0-------------| 
--4s-------4--------4-----------------4s----5-------| 
--5s-------5--------5-----------------5-------------| 
--5s-------5----------------------------------------| 

                                                                                 
--------------------------------------------------------------------------7----- 
--------------------------------------------------------------------0----------- 
--0-----------------------------------------------------------0----------------- 
--0-----------------------------------------------------0----------------------- 
--5h-------7h-------5h-------7h-------5----------------------------------------- 
--7----------------------------------------------------------------------------- 

                                                                      
---------------------5--------------------------3-------------------| 
--------------------------------------------------------------------| 
--------------------------------------------------------------------| 
--------------------------------------------------------------------| 
--------------------------------------------------------------------| 
--------------------------------------------------------------------| 

                                                       
----------------------------------------------------|| 
--0-----------------0-----------------------x--x----|| 
--0-----------x-----0-----------------------x--x----|| 
--0-----------x-----0-------------------------------|| 
--3h-5h-3h-5--x-----2h-3h-2h-3h-2h-3h-2-------------|| 
--5-----------------3-----------------3-------------|| 

                                                                                 
-------------------------------------------------------------------------7------ 
-------------------------------------------------------------------3------------ 
o0-----------------------------------------------------------0------------------ 
o0-----------------------------------------------------0------------------------ 
-5h-------7h-------5h-------7h-------5------------------------------------------ 
-7------------------------------------------------------------------------------ 

                                                                     
--------------------5--------------------------3-------------------| 
--------------------1--------------------------0-------------------| 
-------------------------------------------------------------------| 
-------------------------------------------------------------------| 
-------------------------------------------------------------------| 
-------------------------------------------------------------------| 

                                                      
---------------------------------------------------|| 
--0-----------------0-----------------------x--x---|| 
--0-----------x-----0-----------------------x--0--o|| 
--0-----------x-----0-----------------------------o|| 
--3h-5h-3h-5--x-----2h-3h-2h-3h-2h-3h-2------------|| 
--5-----------------3-----------------3------------|| 

                                                      
----------------------------------------------------| 
--0-----------------0-----------------0-----x--x----| 
--0-----------x-----0-----------------------x--0----| 
--0-----------x-----0-------------------------------| 
--3h-5h-3h-5--x-----2h-3h-2h-3h-2h-3h-2-------------| 
--5-----------------3-----------------3-------------| 

                                                      
----------------------------------------------------| 
--0-----------------0-----------------------x--0----| 
--0-----------x-----0-----------------------x-------| 
--0-----------x-----0-------------------------------| 
--3h-5h-3h-5--x-----2h-3h-2h-3h-2h-3h-2-------------| 
--5-----------------3-----------------3-------------| 

                                                              
----------------------------------------------------|-------| 
--0-----------------0-------------------------------|--0----| 
--0-----------x-----0-------------------------------|--0----| 
--0-----------x-----0-------------------------------|--0----| 
--3h-5h-3h-5--x-----2h-3h-2h-3h-2h-3h-2h----3-------|--2----| 
--5-----------------3-------------------------------|--3----| 

  ^ 
--3-------------------------------------------------|----|| 
--0-------------------------------------------------|----|| 
--0-------------------------------------------------|----|| 
--0-------------------------------------------------|----|| 
--2-------------------------------------------------|----|| 
--3-------------------------------------------------|----|| 
	  

Search Paypal
auto scroll beats size up size down change color hide chords drawings
tab show chords e-chords YouTube Clip e-chords hide all tabs e-chords go to top tab