Rob Scallon

home > Rob Scallon

Tamara Tab

Rob Scallon

Difficulty: nolevelnolevel

by jessgomes

tuner correct add songbook print version text version save to e-mail
chordsukulelecavacokeyboardtabbassdrumsharmonicsflute Guitar Pro
chords

Tamara

  		

Legend 
L - tied note 
x - dead note 
h - hammer on/pull off 
b - bend 
s - slide 
~ - vibrato 
g - ghost note 
> - accentuated note 
t - trill 
M - palm mute 
. - staccato 
P - popping (bass) 
S - slapping (bass) 
+ - tapping 
W - wide vibrato 
< - fade in 
w - whammy bar 
= - tremolo picking 
v - brush up 
^ - brush down 
V - pick stroke up 
n - pick stroke down 


E ||-------------0-----------------0-------| 
B ||----21-0-----0--------21-0-----0-------| 
G ||o------11g---11----------11g---11------| 
D ||o21-------9--9-----21-------9--9-------| 
A ||----------11g11-------------11g11------| 
E ||-------------0-----------------0-------| 


--------------0-----------------0-------| 
-----19-0-----0--------17-0-----0-------| 
--------11g---11----------11g---11------| 
--19-------9--9-----18-------9--9-------| 
-----------11g11-------------11g11------| 
--------------0-----------------0-------| 


--------------0-----------------0-------| 
-----17-0-----0--------17-0-----0-------| 
--------13g---13----------13g---13------| 
--18-------11-11----18-------11-11------| 
-----------12g12-------------12g12------| 
--------------0-----------------0-------| 


--------------0-----------------0------|| 
-----17-0-----0--------19-0-----0------|| 
--------13g---13----------13g---13----o|| 
--18-------11-11----19-------11-11----o|| 
-----------12g12-------------12g12-----|| 
--------------0-----------------0------|| 


--------------0-----------------0-------| 
-----12-0-----0--------12-0-----0-------| 
--------8g----8-----------8g----8-------| 
--13-------6--6-----13-------6--6-------| 
-----------7g-7--------------7g-7-------| 
--------------0-----------------0-------| 


--------------0-----------------0-------| 
-----12-0-----0--------12-0-----0-------| 
--------8g----8-----------8g----8-------| 
--13-------6--6-----13-------6--6-------| 
-----------7g-7--------------7g-7-------| 
--------------0-----------------0-------| 


--------------0-----------------0-------| 
-----12-0-----0--------12-0-----0-------| 
--------8g----8-----------8g----8-------| 
--13-------6--6-----13-------6--6-------| 
-----------7g-7--------------7g-7-------| 
--------------0-----------------0-------| 


--------------0-----------------0-------| 
-----10-0-----0--------9--0-----0-------| 
--------8g----8-----------8g----8-------| 
--11-------6--6-----9--------6--6-------| 
-----------7g-7--------------7g-7-------| 
--------------0-----------------0-------| 


--------------0-----------------0-------| 
-----9--0-----0--------9--0-----0-------| 
--------1g----1-----------1g----1-------| 
--9--------2--2-----9--------2--2-------| 
-----------0g-0--------------0g-0-------| 
--------------2-----------------2-------| 


--------------0-----------------0-------| 
-----9--0-----0--------9--0-----0-------| 
--------1g----1-----------1g----1-------| 
--9--------2--2-----9--------2--2-------| 
-----------0g-0--------------0g-0-------| 
--------------2-----------------2-------| 


--------------0-----------------0-------| 
-----9--0-----0--------9--0-----0-------| 
--------1g----1-----------1g----1-------| 
--9--------2--2-----9--------2--2-------| 
-----------0g-0--------------0g-0-------| 
--------------2-----------------2-------| 


--------------0-----------------0-------| 
-----10-0-----0--------10-0-----0-------| 
--------1g----1-----------1g----1-------| 
--11-------2--2-----11-------2--2-------| 
-----------0g-0--------------0g-0-------| 
--------------2-----------------2-------| 


--------------0-----------------0-------| 
-----12-0-----0--------12-0-----0-------| 
--------8g----8-----------8g----8-------| 
--13-------6--6-----13-------6--6-------| 
-----------7g-7--------------7g-7-------| 
--------------0-----------------0-------| 


--------------0-----------------0-------| 
-----12-0-----0--------12-0-----0-------| 
--------8g----8-----------8g----8-------| 
--13-------6--6-----13-------6--6-------| 
-----------7g-7--------------7g-7-------| 
--------------0-----------------0-------| 


--------------0-----------------0-------| 
-----12-0-----0--------12-0-----0-------| 
--------8g----8-----------8g----8-------| 
--13-------6--6-----13-------6--6-------| 
-----------x--x--------------xg-x-------| 
--7--------7--7--------------7--7-------| 


--------------0-----------------0-------| 
-----12-0-----0--------12-0-----0-------| 
--------8g----8-----------8g----8-------| 
--13-------6--6-----13-------6--6-------| 
-----------x--x--------------xg-x-------| 
--7--------7--7--------------7--7-------| 


--------------0-----------------0-------| 
-----17-0-----0--------17-0-----0-------| 
--------13g---13----------13g---13------| 
--18-------11-11----18-------11-11------| 
-----------xg-x--------------xg-x-------| 
--------------12----------------12------| 


--------------0-----------------0-------| 
-----17-0-----0--------17-0-----0-------| 
--------13g---13----------13g---13------| 
--18-------11-11----18-------11-11------| 
-----------xg-x--------------xg-x-------| 
--------------12----------------12------| 


--------------0-----------------0-------| 
-----17-0-----0--------17-0-----0-------| 
--------13g---13----------13g---13------| 
--18-------11-11----18-------11-11------| 
-----------xg-x--------------xg-x-------| 
--------------12----------------12------| 


--------------0-----------------0-------|| 
-----17-0-----0--------17-0-----0-------|| 
--------13g---13----------13g---13------|| 
--18-------11-11----18-------11-11------|| 
-----------xg-x--------------xg-x-------|| 
--------------12----------------12------|| 
	  

Search Paypal
auto scroll beats size up size down change color hide chords drawings
tab show chords e-chords YouTube Clip e-chords hide all tabs e-chords go to top tab