Lost Acapulco

Uga Uga Uga

Lost Acapulco

tabs

by  TERCMORAES

save to print version add songbook text version e-mail correct tuner
chordsukulelecavacokeyboardtabbassdrumsharmonicaflute Guitar Pro
close

there isn't a video lesson for this song

chords

Uga Uga Uga

(Lost acapulco)

	  		e-----------------|------------------------------- 
b-----------------|------------------------------- 
g-----------------|------------------------------- 
d-----------------|---------2-2-0-0--------------- 
a---------2-2-----|-0-0-3-3----------------------- 
e-0-0-3-3-----3-3-|------------------------------- 
        x4                  x2 


e------------------------------------------------- 
b------------------------------------------------- 
g------------------------------------------------- 
d------------------------------------------------- 
a-2-2-2---7-7-7---2-2-2----12/2-con tremolo surf-- 
e-0-0-0------------------------------------------- 

estas son las cuerdas ustedes agarren el ritmo 
e-3---0---x-------------------------------------- 
b-3---2---x-------------------------------------- 
g-0---2---1-------------------------------------- 
d-0---2---2-------------------------------------- 
a-2---0---2-------------------------------------- 
e-3---0---0-------------------------------------- 


no se en que disco vienen la cancion,  
pero ya la he escuchado varias veces en vivo,  
igual si semeten a la pagina de lost la escuchan,  
es la rola que esta de fondo.
		  

See also:

tabs Lost Acapulco - Hollywood Baby tabs Lost Acapulco - Tangatutanga tabs Los Traseros Empapados - No Me Haras Sufrir tabs Brujeria - Ritmos Satanicos tabs Lost Acapulco - Mpm La Quebradora tabs Lost Acapulco - Incidente En Calle Dakota
e-chords

Other versions:

tabs Lost Acapulco - Uga Uga Uga
auto scroll beats size up size down change color hide chords drawings
tab show chords e-chords YouTube Clip e-chords hide all tabs e-chords go to top tab

share