Lost Acapulco

Aqua Vulva

Lost Acapulco

tabs

by  HUGO_RODRIGUES

save to print version add songbook text version e-mail correct tuner
chordsukulelecavacokeyboardtabbassdrumsharmonicaflute Guitar Pro
close

there isn't a video lesson for this song

chords

Aqua Vulva

(Guili Acapulco)

	  		ESTA CANCION SE LA DEDICO A TODA LA BANDA EN ESPECIAL 
A MIS AMIGOS QUE ME HAN APOYADO COMO KESORTE, MIRION, 
POR SUPUESTO A MARLA SHAMARA JAZMIN(ALGUIEN MUCHO MAS ESPECIAL) 
AL CHUY ETC.. 

AGARRA TU TABLA Y A DOMINAR OLAS!!!!!!!!!!! 

INTRO                                        A 
e)--------------------------------------------- 
B)--------------------------------------------- 
G)--------------------------------------------- 
D)-------------2--0-0-------------------------- 
A)------0-0--3--------2-3-2-3-0-0-0----------0- 
E)-----------------------------------0-0-3-3--- 
RIFF 1 
e)----------------------------------------------------------- 
B)----------------------------------------------------------- 
G)----------------------------------------------------------- 
D)----------------------------------------------------------- 
A)----------------------------------------------------------- 
E)-0h1-1-1-1-1-1-1-1--3-3/5-3-1-5-5-5-5-5--7-7--6-6--5-5--3-3 
RIFF 2 
e)--------------------------------- 
B)--------------------------------- 
G)--------------------------------- 
D)--------------------------------- 
A)--------------------------------- 
E)-0h1-1-1-1-1-1-1-1--3-3/5-3-1-0~~ 

RIFF 3 
e)-------------- 
B)-------------- 
G)-------------- 
D)-2-0---0------ 
A)-----3---3-2-0 
E)-------------- 

RIFF 4 
e)-5v------10v----5v-- 
B)-5v------10v----5v-- 
G)-5v------10v----5v-- 
D)-------------------- 
A)-------------------- 
E)-------------------- 

RIFF 5 
e)-10v--3v--10v--- 
B)-10v--3v--10v--- 
G)-10v--3v--10v--- 
D)---------------- 
A)---------------- 
E)---------------- 

RIFF 6 

e)---------------------------------------------------- 
B)---------------------------------------------------- 
G)---------------------------------------------------- 
D)-2-3----2-3--2-3-5-3-3-3-2--------2-3--3/5/7/5-3-2-- 
A)---------------------------------------------------- 
E)---------------------------------------------------- 
RIFF 7  (esta parte va despues del solo) 
e)------------------------------------------------------------ 
B)------------------------------------------------------------ 
G)-----9-10~----9-10-9-10-12-10-10-9----9-10-10/12/13-12-10-9- 
D)------------------------------------------------------------ 
A)------------------------------------------------------------ 
E)------------------------------------------------------------ 




ESTRUCTURA 

INTRO X3 
RIFF 1 
RIFF 2 
RIFF 3 
INTRO X3 
RIFF 1 
RIFF 2 
RIFF 3 
RIFF 4 X2 
RIFF 5 
RIFF 6 
RIFF 3 
RIFF 7 
RIFF 3 
Final  Am (va con cejilla) 

Am 
e)-5-- 
B)-5-- 
G)-5-- 
D)-7-- 
A)-7-- 
E)-5-- 


aLGUNA MENTADA DE MADRE HAGANMELO SABER EN MI MAIL 
cAMARAS SE DESPIDE 
      MASCARITA!!!!!!!!!!!!!!! 


SURF AND  BEER
		  

Full key step upFull key step up
Half key step upHalf key step up
Half key step downHalf key step down
Full key step downFull key step down
hide glossary

See also:

tabs Lost Acapulco - Aqua Vulva tabs Lost Acapulco - Surf Mongol tabs Los Traseros Empapados - No Me Haras Sufrir tabs Lost Acapulco - Las Brisas tabs Lost Acapulco - Uga Uga Uga tabs Lost Acapulco - Ven Perrita
e-chords

Other versions:

tabs Lost Acapulco - Aqua Vulva
auto scroll beats size up size down change color hide chords drawings
tab show chords e-chords YouTube Clip e-chords hide all tabs e-chords go to top tab

share