Lost Acapulco

Mi Sin Goggles

Lost Acapulco

tabs

by  TERCMORAES

save to print version add songbook text version e-mail correct tuner
chordsukulelecavacokeyboardtabbassdrumsharmonicaflute Guitar Pro
close

there isn't a video lesson for this song

chords

Mi Sin Goggles

	  		Autor: Lost acapulco 


Algunos acordes son dudosos, cualquier correccion escribidme. 

Esto no es plagio como lo de vid, ni cosas malhechas como las de rulo. 
e----7------ 
b----7------ 
g----7------se repite  
d----------- 
a----------- 
E----------- 

e-----6---7--- 
b-----6---7--- 
g-----6---7---este es el único cambio 
d------------- 
a------------- 
E------------- 


bajo 
las notas entre () las tocan apartir de la sugunda vuelta 
g--------------------------------- 
d--------------------------------- 
a---5-7-9-7-5---5----------------- 
E-7-----------7---5h7-(7)-5h7-(7)- 


g--------------------------------- 
d---5-7-9-7-5---5----------------- 
a-7-----------7---5h7-(7)-5h7-(7)- 
E--------------------------------- 


g----------------------------------- 
d----------------------------------- 
a---5-7-9-7-5---5----5-7-9-7-5---5-- 
E-7-----------7----7-----------7---- 


e--3-2-1----7-7-x-7-7 
b--3-2-1----7-7-x-7-7 
g--3-2-1-------------se repite  
d-------------------- 
a-------------------- 
E-------------------- 

Un saludo a vid, rulo, teto, fosh y ; Memito ,!feliz cumpleaños¡ (04-05-03)
		  

See also:

tabs Lost Acapulco - Hollywood Baby tabs Lost Acapulco - Tangatutanga tabs Los Traseros Empapados - No Me Haras Sufrir tabs Brujeria - Ritmos Satanicos tabs Lost Acapulco - Mpm La Quebradora tabs Lost Acapulco - Incidente En Calle Dakota
e-chords

Other versions:

tabs Lost Acapulco - Mi Sin Goggles
auto scroll beats size up size down change color hide chords drawings
tab show chords e-chords YouTube Clip e-chords hide all tabs e-chords go to top tab

share