Lost Acapulco

Camarena

Lost Acapulco

tabs

by  HUGO_RODRIGUES

save to print version add songbook text version e-mail correct tuner
chordsukulelecavacokeyboardtabbassdrumsharmonicaflute Guitar Pro
close

there isn't a video lesson for this song

chords

Camarena

	  		dedicada a john bonachon y/o juan podrido por ser de  
los único interesados en este tipo de música 

e------------------------------------------------------ 
b------------------------------------------------------ 
g------------------------------------------------------ 
d-----------0-0-5-3------------------------------------- 
a-0-0-5-3-------------3(x5)-5(x5)-1(x5)---------------- 
e------------------------------------------------------ 
     4x        2x 

e------------------------------------------------------ 
b------------------------------------------------------ 
g------------------------------------------------------ 
d------------------------------------------------------ 
a-0-0-7-7-0-0-7-5-7-5-0-------------------------------- 
e------------------------------------------------------ 

e------------------------------------------------------ 
b------------------------------------------------------ 
g------------------------------------------------------ 
d------6---6-8--6-8-10-6-8-10-6-8-6/16-16-16...-------- 
a----7---7-----7--------------------------------------- 
e------------------------------------------------------ 
fig1 
e------------------------------------------------------ 
b------------------------------------------------------ 
g------------------------------------------------------ 
d---6-8-10-12-12-12-11--------8-6-8--------8-6-8------- 
a-7-----------------------7-7----------7-7------------- 
e------------------------------------------------------ 
            2x                2x           2x 

fig2 
e------------------------------------------------------ 
b------------------------------------------------------ 
g-7--9--3--5------------------------------------------- 
d-7--9--5--7--cada cuerda se toca como----------------- 
a-5--7--3--5--4 o 5 veces, escuchenla------------------ 
e------------------------------------------------------ 


e-12--14-12-14-12-14-12/15-17-13-1--------------------- 
b------------------------------------------------------ 
g------------------------------------------------------ 
d------------------------------------------------------ 
a------------------------------------------------------ 
e------------------------------------------------------ 


e------------------------------------------------------ 
b---10-11------11--13-10-11-13-10-11--9/18v18v18v18v18v 
g-9-------9-10----------------------------------------- 
d------------------------------------------------------ 
a------------------------------------------------------ 
e------------------------------------------------------ 

enterita.
		  

See also:

tabs Lost Acapulco - Hollywood Baby tabs Lost Acapulco - Tangatutanga tabs Los Traseros Empapados - No Me Haras Sufrir tabs Brujeria - Ritmos Satanicos tabs Lost Acapulco - Mpm La Quebradora tabs Lost Acapulco - Incidente En Calle Dakota
e-chords

Other versions:

tabs Lost Acapulco - Camarena
auto scroll beats size up size down change color hide chords drawings
tab show chords e-chords YouTube Clip e-chords hide all tabs e-chords go to top tab

share