Lost Acapulco

El Garage De Gina Munster

Lost Acapulco

tabs

by  HUGO_RODRIGUES

save to print version add songbook text version e-mail correct tuner
chordsukulelecavacokeyboardtabbassdrumsharmonicaflute Guitar Pro
close

there isn't a video lesson for this song

chords

El Garage De Gina Munster

	  		--------------------------------------------------- 
--------------------------------------------------- 
---------------------- --------4-0-2-2-0-2-0-2-0--- 
------4-0-2-2-0-2-0-2-0----2-2--------------------- 
--2-2---------------------------------------------- 
--------------------------------------------------- 

------------------------------------------------------------ 
----------------------------------12----10-10----10----10-12 
----11----9-9----9----9-11--9-9-9----12-------12----12------ 
9-9----11-----11---11--------------------------------------- 
------------------------------------------------------------ 
------------------------------------------------------------ 
solo 
--------------------------------------------------- 
--------------------------------------------------- 
--------------------------------------------------- 
------------12-15*-12----12----12----12----12------ 
-9-12-12-14-----------14----14----14----14----14--- 
--------------------------------------------------- 

--------------------------------------------------------- 
--------------------------------------------------------- 
--------------------------------------------------------- 
------------------------------------5/9?-5/9-?5/9--5-7-9- 
-14-14-12-12-14-14--14-12-14-12-14--3/7--3/7--3/7--3-5-7- 
---------------------------------------------------------
		  

See also:

tabs Lost Acapulco - Hollywood Baby tabs Lost Acapulco - Tangatutanga tabs Los Traseros Empapados - No Me Haras Sufrir tabs Brujeria - Ritmos Satanicos tabs Lost Acapulco - Mpm La Quebradora tabs Lost Acapulco - Incidente En Calle Dakota
e-chords

Other versions:

tabs Lost Acapulco - El Garage De Gina Munster
auto scroll beats size up size down change color hide chords drawings
tab show chords e-chords YouTube Clip e-chords hide all tabs e-chords go to top tab

share