Lost Acapulco

Ven Perrita

Lost Acapulco

tabs

by  TERCMORAES

save to print version add songbook text version e-mail correct tuner
chordsukulelecavacokeyboardtabbassdrumsharmonicaflute Guitar Pro
close

there isn't a video lesson for this song

chords

Ven Perrita

	  		Autor:   El Warpig 


---------------------------------------------------- 
---------------------------------------------------- 
---------------------------------------------------- 
---------------------------------------------------- 
-0-0-3--5-3-5-0--5-0-0-3--5-3-0-0-3--5-3-5-3-5-3-5-- 
---------------------------------------------------- 


--------------------------7-7-4-6-4----------------- 
-8-8-5-7-5---5-7-8-5-5-5---------------------------- 
-----------7---------------------------------------- 
------------------------------------ 
---------------------------------------------------- 
---------------------------------------------------- 


---------------------------------------------------- 
---------------------------------------------------- 
---------------------------------------------------- 
---------------0-0-0-1-3-1-------6-6-6-7-9-7-------- 
-0-0-0--1-3-1--------------------------------------- 
----------------------------------------------------
		  

See also:

tabs Lost Acapulco - Aqua Vulva tabs Lost Acapulco - Surf Mongol tabs Los Traseros Empapados - No Me Haras Sufrir tabs Lost Acapulco - Las Brisas tabs Lost Acapulco - Uga Uga Uga tabs Lost Acapulco - Ven Perrita
e-chords

Other versions:

tabs Lost Acapulco - Ven Perrita
auto scroll beats size up size down change color hide chords drawings
tab show chords e-chords YouTube Clip e-chords hide all tabs e-chords go to top tab

share