Lost Acapulco

Misión Malvarosa

Lost Acapulco

tabs

by  TERCMORAES

save to print version add songbook text version e-mail correct tuner
chordsukulelecavacokeyboardtabbassdrumsharmonicaflute Guitar Pro
close

there isn't a video lesson for this song

chords

Misión Malvarosa

	  		En nombre del ISKALLI 123 
Entra primero la guitarra...... 

E------------------------/-------------------------/ 
B------------------------/-------------------------/ 
G------------------------/-------------------------/ 
D------------------------/-------------------------/ 
A------------------------/-------------------------/ 
E-0-0-3-3-2-2-1-0?0-0-0-0/ 0-0-3-3-2-2-1-0?0-0-0-0-/ 

Después bateria y bajo......                 E 
E---------------------------/-------------------------/ 
B---------------------------/-------------------------/ 
G---------------------------/-------------------------/ 
D---------------------------/-------------------------/ 
A---------------------------/-------------------------/ 
E-0-0-3-3-2-2-1-0?0-0-0-0-0-/-0-0-3-3-2-2-1-0-0-0-0-0-/ 

                   E                        E 
E-----------------------------/--------------------------/ 
B-----------------------------/--------------------------/ 
G-----------------------------/--------------------------/ 
D-----------------------------/--------------------------/ 
A-----------------------------/--------------------------/ 
E-0-0-3-3-2-2-1-0?0-0-0-0-----/-0-0-3-3-2-2-1-0-0-0-0-0--/ 

                   E                        E 
E-----------------------------/--------------------------/ 
B-----------------------------/--------------------------/ 
G-----------------------------/--------------------------/ 
D-----------------------------/--------------------------/ 
A-----------------------------/--------------------------/ 
E-0-0-3-3-2-2-1-0?0-0-0-0-----/-0-0-3-3-2-2-1-0-0-0-0-0--/ 

                A                        A 
E--------------------------/--------------------------------/ 
B--------------------------/--------------------------------/ 
G--------------------------/--------------------------------/ 
D--------------------------/--------------------------------/ 
A-0-0-3-3-2-2-1-0-0-0-1-2-3/-0-0-3-3-2-2-1-0--0-0-1-2-3-----/ 
E--------------------------/--------------------------------/ 

                 E                        E 
E-----------------------------/--------------------------/ 
B-----------------------------/--------------------------/ 
G-----------------------------/--------------------------/ 
D-----------------------------/--------------------------/ 
A-----------------------------/--------------------------/ 
E-0-0-3-3-2-2-1-0?0-0-0-0-----/-0-0-3-3-2-2-1-0?0-0-0-0--/ 

E-0-0-0-0-0---------------------------------- 
B-2-2-2-2-2--------------------------------- 
G-2-2-2-2-2---------------------------------- 
D-2-2-2-2-2---2-2-0-0---------------------- 
A-0-0-0-0-0------------0--------------------- 
E-0-0-0-0-0---------------12à0 (staccatto) 

                E                        E 
E---------------------------/------------------------------/ 
B---------------------------/------------------------------/ 
G---------------------------/------------------------------/ 
D---------------------------/------------------------------/ 
A---------------------------/------------------------------/ 
E-0-0-3-3-2-2-1-0--0-0-1-2-3/0-0-3-3-2-2-1-0--0-0-1-2-3----/ 

                  A                         A 
E---------------------------/-------------------------------/ 
B---------------------------/-------------------------------/ 
G---------------------------/-------------------------------/ 
D---------------------------/-------------------------------/ 
A-0-0-3-3-2-2-1-0--0-0-1-2-3/0-0-3-3-2-2-1-0--0-0-1-2-3-----/ 
E---------------------------/-------------------------------/ 

E-0-0-0-0-0---------------------------------- 
B-2-2-2-2-2--------------------------------- 
G-2-2-2-2-2---------------------------------- 
D-2-2-2-2-2---2-2-0-0---------------------- 
A-0-0-0-0-0------------0--------------------- 
E-0-0-0-0-0---------------12à0 (staccatto) 

                   E                        E 
E-----------------------------/--------------------------/ 
B-----------------------------/--------------------------/ 
G-----------------------------/--------------------------/ 
D-----------------------------/--------------------------/ 
A-----------------------------/--------------------------/ 
E-0-0-3-3-2-2-1-0?0-0-0-0-----/--0-0-3-3-2-2-1-0?0-0-0-0-/ 

                   A                         A 
E---------------------------/-------------------------------/ 
B---------------------------/-------------------------------/ 
G---------------------------/-------------------------------/ 
D---------------------------/-------------------------------/ 
A-0-0-3-3-2-2-1-0--0-0-1-2-3/0-0-3-3-2-2-1-0--0-0-1-2-3-----/ 
E---------------------------/-------------------------------/ 

E-0-0-0-0-0--------------------------------------------/----0 
B-2-2-2-2-2--------------------------------------------/----2 
G-2-2-2-2-2--------------------------------------------/----2 
D-2-2-2-2-2---2-2-0-0---2-2-0-0---2-2-0-0---2-2-2-0?2--/----2 
A-0-0-0-0-0----------0---------0---------0---------0---/----0 
E-0-0-0-0-0--------------------------------------------/----0 

NOTAS 
Los acordes los ejecuta la guitarra de acompañamiento. 
No se que pedal usen y si alguien sabe comuníquenmelo. 
En los acordes de LA agarren el ritmo. 

GRACIAS Y SALUDOS www.myspace.com/iskalli123 

GuSKA........
		  

Full key step upFull key step up
Half key step upHalf key step up
Half key step downHalf key step down
Full key step downFull key step down
hide glossary

See also:

tabs Lost Acapulco - Aqua Vulva tabs Lost Acapulco - Surf Mongol tabs Los Traseros Empapados - No Me Haras Sufrir tabs Lost Acapulco - Las Brisas tabs Lost Acapulco - Uga Uga Uga tabs Lost Acapulco - Ven Perrita
e-chords

Other versions:

tabs Lost Acapulco - Misión Malvarosa
auto scroll beats size up size down change color hide chords drawings
tab show chords e-chords YouTube Clip e-chords hide all tabs e-chords go to top tab

share