Lost Acapulco

Calaveras Del Justicio

Lost Acapulco

tabs

by  HUGO_RODRIGUES

save to print version add songbook text version e-mail correct tuner
chordsukulelecavacokeyboardtabbassdrumsharmonicaflute Guitar Pro
close

there isn't a video lesson for this song

chords

Calaveras Del Justicio

	  		introduccion(1.0) 
e----------------------------------------------------------------------------------------------| 
B----------------------------------------------------------------------------------------------| 
G----------------------------------------------------------------------------------------------| 
D-------------------------------------------------------------------------2-2-0-0--------------| 
A---0-0-0-0-0-0-0-0-0-0-0-0-0-0-0/3-3-3-3-3-3-3-3-3-3-3-3-3-----------------------3-3-2-2------| 
E----------------------------------------------------------------------------------------------| 
1.1 
e|-------------------------------------------------------------------------------------| 
B|-------------------------------------------------------------------------------------| 
G|---2-2-2-2-2--0-0/2-0----------------------2-2-2-2-2-0-2-2/5-------------------------| 
D|--2-------------------2---0-2-0-2-0-2-0-2-2-------------------2-2-0-0----------------| 
A|----------------------------------------------------------------------3-3-2-2--------| 
E|-------------------------------------------------------------------------------------| 

1.2 
e|-----------------------------------------------------------------------------| 
B|--2-0-2-0-2/4/-2-0-2-0---------------------------------------2-0-2-0-2-0-----| 
G|-2---------------------2---0-2-0-2-5-2-0-2-5-2-0-2---0-2-0-2-------------2-5-| 
D|-----------------------------------------------------------------------------| 
A|-----------------------------------------------------------------------------| 
E|-----------------------------------------------------------------------------| 

2.0 

e|----10----10-12-13-12-10--------10-12-13-12-10---------------------| 
B|----10---10--------------10----10-------------10-13-13-x-x-13------| 
G|----10--10--------------------10-----------------------------------| 
D|-------------------------------------------------------------------| 
A|-------------------------------------------------------------------| 
E|-------------------------------------------------------------------| 

2.1 

e|----10----10-12-13-12-10--------10-12-13-12-10-----------------------------| 
B|----10---10--------------10----10-------------10--13-13-13-13-13-12--------| 
G|----10--10--------------------10-------------------------------------------| 
D|---------------------------------------------------------------------------| 
A|---------------------------------------------------------------------------| 
E|--------------------------------------------------------------------12/0---| 

intro otra vez 
e----------------------------------------------------------------------------------------------| 
B----------------------------------------------------------------------------------------------| 
G----------------------------------------------------------------------------------------------| 
D-------------------------------------------------------------------------2-2-0-0--------------| 
A---0-0-0-0-0-0-0-0-0-0-0-0-0-0-0/3-3-3-3-3-3-3-3-3-3-3-3-3-----------------------3-3-2-2------| 
E----------------------------------------------------------------------------------------------| 
3.0 
e|----------------------------------------------------------------------------| 
B|----------------------------------------------------------------------------| 
G|--------------0-----------0-0/2-0-------------------------------------------| 
D|-0-2--0-2-0-2--2--0-2-0-2--------2-0------0-2--0-2-0--0-2---2-2-0-0---------| 
A|------------------------------------0--0-2----------3---------------3-3-2-2-| 
E|----------------------------------------------------------------------------| 

3.1 
e|-----------------------------------------------------------------------------| 
B|--2-0-2-0-2/4/-2-0-2-0---------------------------------------2-0-2-0-2-0-----| 
G|-2---------------------2---0-2-0-2-5-2-0-2-5-2-0-2---0-2-0-2-------------2-5-| 
D|-----------------------------------------------------------------------------| 
A|-----------------------------------------------------------------------------| 
E|-----------------------------------------------------------------------------| 

4.0 

e|----10----10-12-13-12-10--------10-12-13-12-10---------------------| 
B|----10---10--------------10----10-------------10-13-13-x-x-13------| 
G|----10--10--------------------10-----------------------------------| 
D|-------------------------------------------------------------------| 
A|-------------------------------------------------------------------| 
E|-------------------------------------------------------------------| 

4.1 

e|----10----10-12-13-12-10--------10-12-13-12-10---------------------------------| 
B|----10---10--------------10----10-------------10--13-13-13-13-13-12------------| 
G|----10--10--------------------10-----------------------------------------------| 
D|-------------------------------------------------------------------------------| 
A|-------------------------------------------------------------------------------| 
E|------------------------------------------------------------------------12/0---| 

outro 

e---------------------------------------------------------------------------------------------------------------| 
B---------------------------------------------------------------------------------------------------------------| 
G---------------------------------------------------------------------------------------------------------------| 
D-----------------------------------------------------------0-0-0-0-0-0-0-0-0-0-0-0-0-0/3-3-3-3-3-3-3-3-3-3-3-3-| 
A---0-0-0-0-0-0-0-0-0-0-0-0-0-0-0/3-3-3-3-3-3-3-3-3-3-3-3-3-----------------------------------------------------| 
E---------------------------------------------------------------------------------------------------------------|
		  

See also:

tabs Lost Acapulco - Hollywood Baby tabs Lost Acapulco - Tangatutanga tabs Los Traseros Empapados - No Me Haras Sufrir tabs Brujeria - Ritmos Satanicos tabs Lost Acapulco - Mpm La Quebradora tabs Lost Acapulco - Incidente En Calle Dakota
e-chords

Other versions:

tabs Lost Acapulco - Calaveras Del Justicio
auto scroll beats size up size down change color hide chords drawings
tab show chords e-chords YouTube Clip e-chords hide all tabs e-chords go to top tab

share