Lost Acapulco

El Garage

Lost Acapulco

bass

by  HUGO_RODRIGUES

save to print version add songbook text version e-mail correct tuner
chordsukulelecavacokeyboardtabbassdrumsharmonicaflute Guitar Pro
close

there isn't a video lesson for this song

chords

El Garage

	  		Bass (E A D G) - 'Distor' 


Transcripcion: Jose Manuel Avila  
              [email protected] 


 intro    
               Gtr I 
  Wx2          E E S E E E S S S S S 
|------------|-----------------------| 
|------------|-----4-0-2-2-0-2-0-2-0-| 
|------------|-2-2-------------------| 
|------------|-----------------------| 


  E E S E H    +S      E E S E E E S S S S S  4x 
|------------------||-------------------------||--| 
|-----4-0-2----(2)-||o-----4-0-2-2-0-2-0-2-0-o||--| 
|-2-2--------------||o-2-2-------------------o||--| 
|------------------||-------------------------||--| 


    E E S E E E S S S S S         E E S E E E S S S S S 
||------4-0-2-2-0-2-0-2-0--||-||-------------------------|| 
||o-2-2-------------------o||-||o-----4-0-2-2-0-2-0-2-0-o|| 
||o-----------------------o||-||o-2-2-------------------o|| 
||-------------------------||-||-------------------------|| 

Coro 

      G         B 
      E E E S S E E E S S  3x 
|-||-----------------------||--| 
|-||o---------------------o||--| 
|-||o-----------2-2-2-2-2-o||--| 
|-||--3-3-3-3-3------------||--| 


  S S E S S H    E   S S S S S S S S S S S S S S S S 
|------------------|---------------------------------| 
|------------------|-2-2-2-2-2-2-2-2-2-2-2-2-2-2-2-2-| 
|-------0-0-0------|---------------------------------| 
|-3-3-3------------|---------------------------------| 

Verso 2 
    
    E E S E E E S S S S S  4x 
||-------------------------||--| 
||o-----4-0-2-2-0-2-0-2-0-o||--| 
||o-2-2-------------------o||--| 
||-------------------------||--| 


    E E S E E E S S S S S         E E S E E E S S S S S 
||------4-0-2-2-0-2-0-2-0--||-||-------------------------|| 
||o-2-2-------------------o||-||o-----4-0-2-2-0-2-0-2-0-o|| 
||o-----------------------o||-||o-2-2-------------------o|| 
||-------------------------||-||-------------------------|| 

Coro 
     
      G         B 
      E E E S S E E E S S  3x 
|-||-----------------------||--| 
|-||o---------------------o||--| 
|-||o-----------2-2-2-2-2-o||--| 
|-||--3-3-3-3-3------------||--| 


  S S E S S H    E   S S S S S S S S S S S S S S S S 
|------------------|----------------------------------| 
|------------------|-2-2-2-2-2-2-2-2-2-2-2-2-2-2-2-2--| 
|-------0-0-0------|----------------------------------| 
|-3-3-3------------|----------------------------------|
		  

See also:

bass Lost Acapulco - El Garage bass Lost Acapulco - Tanga Tutanga
e-chords

Other versions:

bass Lost Acapulco - El Garage
auto scroll beats size up size down change color hide chords drawings
tab show chords e-chords YouTube Clip e-chords hide all tabs e-chords go to top tab

share