Lost Acapulco

Hollywood Baby

Lost Acapulco

tabs

by  HUGO_RODRIGUES

save to print version add songbook text version e-mail correct tuner
chordsukulelecavacokeyboardtabbassdrumsharmonicaflute Guitar Pro
close

there isn't a video lesson for this song

chords

Hollywood Baby

	  		Aki esta para todos los ke la pidieron! 

Primero entra el piano, y por si lo kieren son las mismas 
notas ke la primera parte; luego entra el bajo y ya empieza. 

E--0-0---0---0-0--------00000000/3/00000---0-- 
B------3---0-----0--0-3------------------3---- 
G--------------------------------------------- 
D---------------------------------------------   X2 
A--------------------------------------------- 
E--------------------------------------------- 

E------00000000/3/00000---0-- 
B--0-3------------------3---- 
G---------------------------- 
D----------------------------   X2 
A---------------------------- 
E---------------------------- 

E------------------------------------------------ 
B------------------------------------------------ 
G---------------------0-22222222/3333/2/0---0---- 
D--2-2-0-2---2-2----2---------------------2---2--   X2 
A----------2-----2------------------------------- 
E------------------------------------------------ 

E-------------------------------    E------------------------- 
B-------------------------------    B------------------------- 
G----0-22222222/3333/2/0---0----    G----0-22222222333320----- 
D--2---------------------2---2--    D--2------------------2--- 
A-------------------------------    A------------------------- 
E-------------------------------    E------------------------- 

Aki entra el bajo una parte y ya sigue 

E--0-0---0---0-0--------00000000/3/00000---0-- 
B------3---0-----0--0-3------------------3---- 
G--------------------------------------------- 
D---------------------------------------------   X2 
A--------------------------------------------- 
E--------------------------------------------- 
                           En la tercera vez, 
                           aki se arrastra esta nota hasta 
                           el traste 10 y regresa 
E------00000000/3/00000---0--     E------00000000/3/00000---- 
B--0-3------------------3----     B--0-3------------------3-- 
G----------------------------     G-------------------------- 
D---------------------------- X3  D-------------------------- 
A----------------------------     A-------------------------- 
E----------------------------     E-------------------------- 

Y termina con una parte del bajo
		  

See also:

tabs Lost Acapulco - Aqua Vulva tabs Lost Acapulco - Surf Mongol tabs Los Traseros Empapados - No Me Haras Sufrir tabs Lost Acapulco - Las Brisas tabs Lost Acapulco - Uga Uga Uga tabs Lost Acapulco - Ven Perrita
e-chords

Other versions:

tabs Lost Acapulco - Hollywood Baby
auto scroll beats size up size down change color hide chords drawings
tab show chords e-chords YouTube Clip e-chords hide all tabs e-chords go to top tab

share