Lost Acapulco

Surf Mongol

Lost Acapulco

tabs

by  TERCMORAES

save to print version add songbook text version e-mail correct tuner
chordsukulelecavacokeyboardtabbassdrumsharmonicaflute Guitar Pro
close

there isn't a video lesson for this song

chords

Surf Mongol

	  		e|-------------------------| 
B|-------------------------| 
G|-------------------------|x muchas veces 
D|--7--7-7--5---7--7-7--5--| 
A|--7--7-7--5---7--7-7--5--| 
E|--5--5-5--3---5--5-5--3--| 

1er arreglo (0:13) 2do arreglo(0:19) 
e|-5-5-8-7-5------|-------------------| 
B|-5-5-------8-5--|--5-5-6-5----------| 
G|-5-5------------|--6-6-----7-5------| 
D|----------------|--7-7--------------| 
A|----------------|-------------------| 
E|----------------|-------------------| 


Justo despues del 2do arreglo 
e|------------------------| 
B|------------------------| 
G|--7--7-7--5--7--7-7--5--| 
D|--7--7-7--5--7--7-7--5--| 
A|--5--5-5--3--5--5-5--3--| 
E|------------------------| 

luego de un rato viene una variacion 
E|------------------------------------------| 
B|------------------------------------------| 
G|------------------------------------------| 
D|--9-9-9-9-9-8-8-8-8-7-7-7-5-7-------------| 
A|--9-9-9-9-9-8-8-8-8-7-7-7-5-7-------------| 
E|--7-7-7-7-7-6-6-6-6-5-5-5-3-5-------------| 

y LUEGO viene el riff mamon 
e|---5--8-5-----5--8-7-5---5-5-5--5--5-5--5-| 
B|-5--5-------5--5-------8-------8--8----8--| 
G|------------------------------------------|x2 
D|------------------------------------------| 
A|------------------------------------------| 
E|------------------------------------------| 

e|----10----13-10------10---13-12-10--------| 
B|-10----10----------10--10----------13-----| 
G|------------------------------------------| 
D|------------------------------------------| 
A|------------------------------------------| 
E|------------------------------------------| 

e|-10-10-10----10----13-12-10---10----------| 
B|----------13----10----------13---13-12-10-| 
G|------------------------------------------| 
D|------------------------------------------| 
A|------------------------------------------| 
E|------------------------------------------| 

e|---5--8-5-----5--8-7-5---5-5-5--5--5-5--5-| 
B|-5--5-------5--5-------8-------8--8----8--| 
G|------------------------------------------| 
D|------------------------------------------| 
A|------------------------------------------| 
E|------------------------------------------| 


Mongoooolll!!!!!!
		  

See also:

tabs Lost Acapulco - Hollywood Baby tabs Lost Acapulco - Tangatutanga tabs Los Traseros Empapados - No Me Haras Sufrir tabs Brujeria - Ritmos Satanicos tabs Lost Acapulco - Mpm La Quebradora tabs Lost Acapulco - Incidente En Calle Dakota
e-chords

Other versions:

tabs Lost Acapulco - Surf Mongol
auto scroll beats size up size down change color hide chords drawings
tab show chords e-chords YouTube Clip e-chords hide all tabs e-chords go to top tab

share