Johann Sebastian Bach

home > Johann Sebastian B...

Air On The G String Tab

Johann Sebastian Bach

Difficulty: ExpertExpert

by edsooliveira

tuner correct add songbook print version text version save to e-mail
chordsukulelecavacokeyboardtabbassdrumsharmonicsflute Guitar Pro
chords

Air On The G String

  		Air On A G String - Johann Sebastian Bach 
Tuning: EADGBE 
Time Signature: 4/4 

 |       |       |       |        |       |       |       |         
|0-------------------------------|0-------------------------------| 
|--------1-------0---------------|1-------------------------------| 
|0-------------------------------|--------2-------0---------------| 
|--------------------------------|--------------------------------| 
|3-----------------------2-------|0-------------------------------| 
|--------------------------------|------------------------3-------| 

 |       |       |       |        |       |       |       |         
|0-------5-----------------------|--------------------------------| 
|------------6-----------0---1---|0-------------------------------| 
|2---------------7---5-----------|------------2---0---------------| 
|--------3-------4---------------|----------------3---------------| 
|--------------------------------|--------------------------------| 
|1-----------------------2-------|3-------3---------------1-------| 

 |       |       |       |        |       |       |       |         
|3-----------------------3-------|----0-------------------3---1---| 
|--------------------------------|----------------3---2---2-------| 
|--------3---2---3-----------3---|2-------3---2---0-------2-------| 
|--------2-------0-------0-------|--------------------------------| 
|--------------------------------|4-------4-------0---------------| 
|0-------------------------------|--------------------------------| 

 |       |       |       |        |       |       |       |         
|1-------------------0---1-------|------------------------1---0---| 
|--------3---1---3-----------3---|----3-----------1---0-----------| 
|2-------2-----------------------|0-------2---0-----------0-------| 
|0-------3-----------------------|--------------------------------| 
|----------------3-------3-------|2-------2-----------------------| 
|--------------------------------|----------------3---------------| 

 |       |       |       |        |       |       |       |         
|0-----------------------2---3---|------------0---0---------------| 
|--------1-------0-------3-------|1-------1-3---------3-------1---| 
|0-------------------------------|0-------2-------2---------------| 
|--------------------------------|----------------4-------0-------| 
|3-----------------------2-------|0-------------------------------| 
|--------------------------------|--------------------------------| 

 |       |       |       |        |       |       |       |         
|--------------------------------|--------------------------------| 
|0---------0-1---1-------0-------|--------------------------------| 
|----2---2-------------------2---|0-------------------------------| 
|5---------------0-------4-------|----------------0---3---2---0---| 
|--------3---------------5-------|----0---2---3-------------------| 
|--------------------------------|3-------------------------------| 

 |       |       |       |        |       |       |       |         
|--------------------------------|--------------------------------| 
|--------------------------------|0-------------------1-0---0-----| 
|0-------------------------------|--------0---------------2---0---| 
|0-------------------------------|----------------3---------------| 
|2-------------------------------|--------------------------------| 
|3-------------------------------|3-----------------------1-------| 

 |       |       |       |        |       |       |       |         
|3-------------------------------|--------5-----------3---1---0---| 
|--------------------------------|--------2---------------2-------| 
|----2---3---------------3-------|2-------0-----------------------| 
|------------0---2-------0-------|2---3-------2-------------------| 
|--------4-----------------------|4---------------4-------0-------| 
|0-------------------------------|--------------------------------| 

 |       |       |       |        |       |       |       | 
|1-----------------0-------------|--------------------------------| 
|3-------------------3-1-0-------|--------0---------------3-------| 
|----------------------------2---|1---2-------------------2-------| 
|0-------0-----------------------|--------0---2---3---2---3---0---| 
|----------------3-------3-------|2---3---------------------------| 
|--------------------------------|--------------------------------| 

 |       |       |       |        |       |       |       | 
|----0---1---------------0-------|--------------------------------| 
|----1---0---------------0-------|3---1---0-------0---1-3-1---0---| 
|------------2---1---2-----------|------------2-----------1-------| 
|2-------------------------------|2-------3-------0-------2-------| 
|--------0-------2---------------|0-------------------------------| 
|4-----------------------4-------|--------------------------------| 

 |       |       |       |        |       |       |       |         
|--------------------------------|--------------------0-----------| 
|--------------------------------|1-----------------------3---1---| 
|2-------2-------0---------------|------------------------0-------| 
|--------------------------------|--------4-------2---------------| 
|0-------------------------------|--------------------------------| 
|------------------------3-------|2-----------------------0-------| 

 |       |       |       |        |       |       |       |         
|5-----------------------3---2---|0---3---------------------------| 
|7-------------------------------|--3-------------------------0-1-| 
|--------------------0---2-------|--------0-------2---------------| 
|0-------0---2---4---------------|------------------------0-------| 
|----------------3-------3-------|2-------2-------0---------------| 
|--------------------------------|--------------------------------| 

 |       |       |       |        |       |       |       |         
|--------------------------------|------------------------0-------| 
|0h0-----------------------------|1-------------------0-------3---| 
|------------2---0---------------|0-------2---3---2-------2-------| 
|----------------3---------------|--------2-------3---------------| 
|--------------------------------|--------------------------------| 
|3-------3---------------1-------|0-----------------------1-------| 

 |       |       |       |        |       |       |       |         
|------------------------1---0---|0-----------------------3---1---| 
|3-------0-------0---2---3-------|3-------2---0---2---3---2-------| 
|2-----------2---0---------------|4-------1-------2---------------| 
|--------4-----------------------|--------------------------------| 
|--------5-----------------------|------------------------0-------| 
|2-----------------------3-------|4-------------------------------| 

 |       |       |       |        |       |       |       |         
|1-------------------------------|----------------------------1---| 
|----2---3-----------------------|--------------------0---3-------| 
|2-----------2-------2-----------|0-----------------------0-------| 
|0-------0-------0-------3---0---|--------------------------------| 
|----------------3-------3-------|2-------2---------------2-------| 
|--------------------------------|----------------3---------------| 

 |       |       |       |        |       |       |       |         
|1-------0---------------0---1-3-|--------------------0---3---6---| 
|----3-------------------1-------|1-----------------------1-------| 
|0-------0---------------0-------|0-----------------------0-------| 
|--------------------------------|--------3-------2-------2-------| 
|3-------3-------1-------1-------|0-------------------------------| 
|--------------------------------|----------------3---------------| 

 |       |       |       |        |       |       |       | 
|6-------5-----------------------|--------1-----------------------| 
|------------------------1-------|0---3---------------------------| 
|5-------5-----------------------|--------2---------------2-------| 
|3-------3---------------2-------|0-------0---------------3---2---| 
|--------------------------------|----------------3-------3-------| 
|----------------0---------------|--------------------------------| 

 |       |       |       |        |       |       |       |         
|----------0-1-------0-----------|--------------------------------| 
|--------3-------------------3---|1-0---------0---0h0---------1---| 
|0-------4-----------------------|0---2-----------0---------------| 
|0-----------------------3-------|--------3-----------------------| 
|2---------------3---------------|--------------------------------| 
|--------3-----------------------|------------------------3-------| 

 |       |       |       |         
|--------------------------------| 
|1-------------------------------| 
|0-------------------------------| 
|2-------------------------------| 
|3-------------------------------| 
|--------------------------------| 
	  

Full key step upFull key step up
Half key step upHalf key step up
Half key step downHalf key step down
Full key step downFull key step down
Search Paypal
auto scroll beats size up size down change color hide chords drawings
tab show chords e-chords YouTube Clip e-chords hide all tabs e-chords go to top tab