Johann Sebastian Bach

home > Johann Sebastian B...

Bmv 1006a - Prelude Tab

Johann Sebastian Bach

Difficulty: nolevelnolevel

by aleffederico

tuner correct add songbook print version text version save to e-mail
chordsukulelecavacokeyboardtabbassdrumsharmonicsflute Guitar Pro
chords

Bmv 1006a - Prelude

  		
  Q=100 
 3/4 

  E  S  S  E E E E   S  S S S E E E E   S S S S S S S S S S S S 
|---12-11-12-7---7-|------------------|--------------------------| 
|--------------9---|-5--7-5-4-5-------|---0---0---0---0---0---0--| 
|------------------|------------4---4-|--------------------------| 
|------------------|--------------6---|-2---4---6---7---6---4----| 
|------------------|------------------|--------------------------| 
|-0----------------|------------------|-0------------------------| 
  Q        Q   Q     H.                 Q       Q       Q 


  S S S S S S S S S S S S   S S S S S S S S S S S S   S S S S S S S S S S S S 
|---0-------0-------------|-------------------------|---0-------0-------------| 
|-----4-2-0---4-2-0-------|---0---0---0---0---0---0-|-----4-2-0---4-2-0-------| 
|-------------------2-1---|-------------------------|-------------------2-1---| 
|-2---------------------4-|-2---4---6---7---6---4---|-2---------------------4-| 
|-------------------------|-------------------------|-------------------------| 
|-------------------------|-0-----------------------|-------------------------| 
          W                 Q       Q       Q                   W 


  S S S S S S S S S S S S   S S S S S S S S  S  S S  S 
|---------------0-2-4-5-2-|-4-7-----4-5-7-9-11-12-9-11-| 
|---------0-2-4-----------|-----5-7--------------------| 
|-----1-2-----------------|----------------------------| 
|-2-4---------------------|----------------------------| 
|-------------------------|----------------------------| 
|-0-----------------------|----------------------------| 
  Q       Q       Q         W 


   S S  S S S S  S S S S S S 
|-12-7----7---7----7---7---7-| 
|------10---9---10---9---7---| 
|----------------------------| 
|----------------------------| 
|----------------------------| 
|--0-------------------------| 
   Q        Q        Q 


  S  S  S S  S S  S S  S S  S S 
|---12-11-9----0----0----0----0-| 
|-----------12---14---12---10---| 
|-9-----------------------------| 
|-------------------------------| 
|-------------------------------| 
|-------------------------------| 
  W 


  S S S S S S  S S S S S S   S  S  S S  S S  S S  S S  S S 
|---7---7---7----7---7---7-|---12-11-9----0----0----0----0-| 
|-9---7---9---10---9---7---|-----------12---14---12---10---| 
|--------------------------|-9-----------------------------| 
|--------------------------|-------------------------------| 
|--------------------------|-------------------------------| 
|-0------------------------|-------------------------------| 
  Q       Q        Q                      W 


  S S S S S S S S S S S S   S S S S S S S S  S S S S   S S S S S S S S S S S S 
|---0---0---0---0---0---0-|---0---0---0---0----0---0-|---0---0---0---0---0---0-| 
|-9---5---4---5---7---4---|-5---9---7---9---10---7---|-9---5---4---5---7---4---| 
|-------------------------|--------------------------|-------------------------| 
|-------------------------|--------------------------|-------------------------| 
|-------------------------|--------------------------|-------------------------| 
|-0-----------------------|--------------------------|-0-----------------------| 
  Q       Q       Q         W                          Q       Q       Q 


  S S S S S S S S  S S S S   S S S S S S S S S S S S   S S S S S S S S S S S S 
|---0---0---0---0----0---0-|---0-------0-------0-----|---0-------0-------0-----| 
|-5---9---7---9---10---7---|-9---9---9---9---9---9---|-9---9---9---9---9---9---| 
|--------------------------|-------9-------9-------9-|-------8-------8-------8-| 
|--------------------------|-------------------------|-------------------------| 
|--------------------------|-------------------------|-------------------------| 
|--------------------------|-0-----------------------|-------------------------| 
  W                          Q       Q       Q         W 


  S S S S S S S S S S S S    S S  S S  S S  S S  S S  S S 
|---0-------0-------0-----|----0---------0---------0------| 
|-9---9---9---9---9---9---|-10---10---10---10---10---10---| 
|-------7-------7-------7-|---------6---------6---------6-| 
|-------------------------|-------------------------------| 
|-------------------------|-------------------------------| 
|-------------------------|-------------------------------| 
  W                          W 


   S S  S S  S S  S S  S S  S S 
|----0---------0---------0------| 
|-10---10---10---10---10---10---| 
|-------------------------------| 
|---------9---------9---------9-| 
|-------------------------------| 
|-------------------------------| 
   W 


  S S S S S S S S S S S S   S S S S S S S S S S S S   S S S S S S S S S S S S 
|---0-------0-------0-----|---0-------0-------0-----|---0-------0-------0-----| 
|-9---9---9---9---9---9---|-9---9---9---9---9---9---|-7---7---7---7---7---7---| 
|-------------------------|-------------------------|-------------------------| 
|-------9-------9-------9-|-------7-------7-------7-|-------7-------7-------7-| 
|-------------------------|-------------------------|-------------------------| 
|-------------------------|-------------------------|-------------------------| 
  W                         W                         W 


  S S S S S S S S S S S S   S S S S S S S S S S S S   S S S S S S S S S S S S 
|---0-------0-------0-----|---0-------0-------0-----|---0-------0-------0-----| 
|-7---7---7---7---7---7---|-5---5---5---5---5---5---|-5---5---5---5---5---5---| 
|-------------------------|-------------------------|-------------------------| 
|-------6-------6-------6-|-------6-------6-------6-|-------4-------4-------4-| 
|-------------------------|-------------------------|-------------------------| 
|-------------------------|-------------------------|-------------------------| 
  W                         W                         W 


  S S S S S S S S S S S S   S S S S S S S S S S S S   S S S S S S S S S S S S 
|---0-------0-------0-----|-------------------------|-----------0-------0-----| 
|-4---4---4---4---4---4---|-----------0-------0-----|-------------------------| 
|-------------------------|-------------------------|---2---2-4-----2-4-----2-| 
|-------4-------4-------4-|---4---4-6-----4-6-----4-|-6---6-------6-------6---| 
|-------------------------|-7---7-------7-------7---|-------------------------| 
|-------------------------|-0-----------------------|-0-----------------------| 
  W                         Q       Q       Q         Q       Q       Q 


  S S S S S S S S S S S S   S S S S S S S S S S S S   S S S S S S S S S S S S 
|-----------4-------4-----|---7-4-------------------|-------------------------| 
|---2---2-3-----2-3-----2-|-------5---0-------------|-------------------------| 
|-4---4-------4-------4---|-7-------7---------------|-------------------------| 
|-------------------------|-------------6-----------|-----------6-------6-----| 
|-------------------------|---------------7-5-4-5---|---6---6-8-----6-8-----6-| 
|-4-----------------------|-4---------------------7-|-9---9-------9-------9---| 
  Q       Q       Q         Q       Q       Q         W 


  S S S S S S S S S S S S   S S S S S S S S S S S S   S S S S S S S S S S S S 
|-------------------------|-------------------------|---------7-4-5-----4-----| 
|-------------------------|-----------6-------6-----|-0-9-6---------7-6-----0-| 
|-----------6-------6-----|-------------------------|-------6-------------6---| 
|---------6-------6-------|-6-7-6-7-9---6-7-9---6-7-|-------------------------| 
|-8-9-8-9-----8-9-----8-9-|-8-----------------------|-8-----------------------| 
|-9-----------------------|-------------------------|-------------------------| 
  Q       Q       Q         Q       Q       Q         Q       Q       Q 


  S S S S S S S S S S S S   S S S S S S S S S S S S   S S S S S S S S S S S S 
|-------------------------|-----------------0---4---|-------------------------| 
|---2-----7-4-5-----4-----|-------------2-----------|---4-----9-8-9-8-9-4-5---| 
|-2---2---------6-5-------|---1-------1---1---6---6-|-5---5-----------------6-| 
|-------4-------------6-4-|-2---2---2---------------|-------6-----------------| 
|-------------------------|-------4-----------------|-------------------------| 
|-2-----------------------|-------------------------|-4-----------------------| 
  Q       Q       Q         W                         Q       Q       Q 


  S S S S S S S S S S S S   S S S S S S S S S S S S   S S S S S S S S S S S S 
|-------------------------|-------------------------|-------------------------| 
|---4-----7-6-7-6-7-4-5---|---4---------------------|-------------------------| 
|-5---5-----------------6-|-5---5---2-1-2-1-2-------|-------------------------| 
|-------6-----------------|-------6-----------1-2---|---4---4---4---4---4---4-| 
|-------------------------|-----------------------4-|-3---4---6---4---3---6---| 
|-4-----------------------|-4-----------------------|-------------------------| 
  Q       Q       Q         Q       Q       Q         W 


  S S S S S S S S S S S S   S S S S S S S S S S S S   S S S S S S S S S S S S 
|-------------------------|-------------------------|-------------------------| 
|-----4-------4-------4---|---------5-------5-------|-----4-------4-------4---| 
|---------5-------5-------|-----6-------6-------6---|---------5-------5-------| 
|---4---4---4---4---4---4-|-------------------------|---4---4---4---4---4---4-| 
|-------------------------|---7---7---7---7---7---7-|-------------------------| 
|-4-----------------------|-4-----------------------|-4-----------------------| 
  Q       Q       Q         Q       Q       Q         Q       Q       Q 


  S S S S S S S S S S S S   S S S S S S S S S S S S   S S S S S S S S S S S S 
|-------------------------|-------------------------|-------------------------| 
|---------5-------5-------|---------5-------5-------|---------5-------5-------| 
|-----6-------6-------6---|-----6-------6-------6---|-----6-------6-------6---| 
|-------------------------|---5---5---5---5---5---5-|---5---5---5---5---5---5-| 
|---7---7---7---7---7---7-|-------------------------|-------------------------| 
|-4-----------------------|-4-----------------------|-4-----------------------| 
  Q       Q       Q         Q       Q       Q         Q       Q       Q 


  S S S S S S S S S S S S   S S S S S S S S S S S S   S S S S S S S S S S S S 
|-------------------------|-------------------------|-------------------------| 
|---------4-------4-------|---------4-------4-------|---2---------------------| 
|-----6-------6-------6---|-----5-------5-------5---|-----4-2---2-------1-----| 
|---6---6---6---6---6---6-|---4---4---4---4---4---4-|-2-------6---6-4-2---2-1-| 
|-------------------------|-------------------------|-4-----------------------| 
|-4-----------------------|-4-----------------------|-------------------------| 
  Q       Q       Q         Q       Q       Q         Q       Q       Q 


  S S S S S S S S S S S S   S S S S S S S S S S S S   S S S S S S S S S S S S 
|-------------------------|---------0-------0-------|-------------------------| 
|---2---------------------|-----2-------2-------2---|---------5-------5-------| 
|-----1-----1-------------|-------------------------|-----6-------6-------6---| 
|-------4-2---2-1---2-----|---4---4---4---4---4---4-|---4---4---4---4---4---4-| 
|-4---------------4---4-2-|-1-----------------------|-------------------------| 
|-------------------------|-------------------------|-6-----------------------| 
  W                         Q       Q       Q         Q       Q       Q 


  S S  S S S S S S S S S  S 
|---7--------7--------------| 
|-----11-9-7---7-----7------| 
|-8--------------9-8---8----| 
|------------------------11-| 
|---------------------------| 
|-7-------------------------| 
  Q        Q       Q 


  S S S S S S S  S S S S S   S S S S S S S S S S S S 
|---7----------------------|-----0---4---7---4---0---| 
|-----7-----7--------------|-------------------------| 
|-------9-8---8------8-----|---7---7---7---7---7---7-| 
|-9-------------11-9---9-7-|-6-----------------------| 
|--------------------------|-------------------------| 
|--------------------------|-------------------------| 
  W                          Q       Q       Q 


  S S S S S S S S S S S S   S S S S S S S S S S S S   S S S S S S S S S S S S 
|-----0-------------------|---0-5-4-5-0---0---0---0-|---5-4-2-----2-----------| 
|-------------------------|-------------------------|---------5-------5---3---| 
|---7---7---7---7---7---7-|-6-----------7---6---4---|-2---------2---2---2---2-| 
|-6-------6---4---6-------|-------------------------|-------------------------| 
|---------------------7---|-0-----------------------|-------------------------| 
|-0-----------------------|-------------------------|-------------------------| 
  Q       Q       Q         Q       Q       Q         W 


  S S S S S S S S S S S S   S S S S S S S S S S S S   S S S S S S S S S S S S 
|---0---0---0---0---0---0-|---5-4-2-----2-----------|-------------------------| 
|-------------------------|---------5-------5---3---|-2-----------------------| 
|-6---4---6---7---6---4---|-2---------2---2---2---2-|-----2---1---2---4---1---| 
|-------------------------|-------------------------|-------------------------| 
|-0-----------------------|-------------------------|---0---0---0---0---0---0-| 
|-------------------------|-------------------------|-------------------------| 
  Q       Q       Q         W                         W 


  S S S S S S S S S S S S   S S S S S S S S S S S S   S S S S S S S S S S S S 
|-------------------------|-------------------------|-------------------------| 
|-------------------------|-------------------------|-------------------------| 
|-2---6---4---6---7---4---|-6---2---1---2---4---1---|-2---6---4---6---7---4---| 
|-------------------------|-------------------------|-------------------------| 
|---0---0---0---0---0---0-|---0---0---0---0---0---0-|---0---0---0---0---0---0-| 
|-------------------------|-------------------------|-------------------------| 
  W                                                   W 


  S S S S S S S S S S S S   S S S S S S S S S S S S   S S S S S S S S S S S S 
|-------------------------|-------------------------|-------------------------| 
|-2---2---2---2---2---2---|-2---2---2---2---2---2---|-2---2---2---2---2---2---| 
|-------2-------2-------2-|-------1-------1-------1-|-------0-------0-------0-| 
|-------------------------|-------------------------|-------------------------| 
|---0-------0-------0-----|---0-------0-------0-----|---0-------0-------0-----| 
|-------------------------|-------------------------|-------------------------| 
  W                         W                         W 


  S S S S S S S S S S S S   S S S S S S S S S S S S   S S S S S S S S S S S S 
|-------------------------|-------------------------|-------------------------| 
|-3---3---3---3---3---3---|-3---3---3---3---3---3---|-2---2---2---2---2---2---| 
|-------------------------|-------------------------|-------------------------| 
|-------4-------4-------4-|-------2-------2-------2-|-------2-------2-------2-| 
|---0-------0-------0-----|---0-------0-------0-----|---0-------0-------0-----| 
|-------------------------|-------------------------|-------------------------| 
  W                         W                         W 


  S S S S S S S S S S S S   S S S S S S S S S S S S   S S S S S S S S S S S S 
|-------------------------|-------------------------|-------------------------| 
|-2---2---2---2---2---2---|-0---0---0---0---0---0---|-0---0---0---0---0---0---| 
|-------------------------|-------------------------|-------------------------| 
|-------0-------0-------0-|-------0-------0-------0-|-------------------------| 
|---0-------0-------0-----|---0-------0-------0-----|-------4-------4-------4-| 
|-------------------------|-------------------------|---5-------5-------5-----| 
  W                         W                         W 


  S S S S S S S S S S S S   S S S S S S S S S S S S   S S S S S S S S S S S S 
|-------------------------|-------------------------|-------------------------| 
|-------------------------|-------------------------|-------------------------| 
|-2---2---2---2---2---2---|-2---2---2---2---2---2---|-1---1---1---1---1---1---| 
|-------------------------|-------------------------|-------------------------| 
|-------4-------4-------4-|-------2-------2-------2-|-------2-------2-------2-| 
|---5-------5-------5-----|---5-------5-------5-----|---5-------5-------5-----| 
  W                         W                         W 


  S S S S S S S S S S S S   S S S S S S S S S S S S   S S S S S S S S S S S S 
|-------------------------|-------------------------|-------------------------| 
|-------------------------|-------------------------|-------------------------| 
|-------------------------|-----------2-------2-----|-----------6-------6-----| 
|-----------2-------2-----|---------2-------2-------|---4---4-5-----4-5-----4-| 
|---2---2-4-----2-4-----2-|-4-5-4-5-----4-5-----4-5-|-7---7-------7-------7---| 
|-5---5-------5-------5---|-5-----------------------|-------------------------| 
  Q       Q       Q         Q       Q       Q         W 


  S S S S S S S S S S S S   S S S S S S S S S S S S   S S S S S S S S S S S S 
|---0-----0---------------|-------------------------|-------------------------| 
|-----2-3---2-----2-------|-------------------------|-----------0-------0-----| 
|-0-----------3-4---3-----|-------------------------|-------------------------| 
|---------------------4-2-|-0-------0-4-----0-4-----|---2---2-4-----2-4-----2-| 
|-------------------------|-2-4-2-4-----2-4-----2-4-|-5---5-------5-------5---| 
|-6-----------------------|-------------------------|-------------------------| 
  Q       Q       Q         Q       Q       Q         W 


  S S S S S S S S S S S S   S S S S S S S S S S S S   S S S S S S S S S S S S 
|-------------------------|---2---------------------|---7-4-5-7-4-----4-------| 
|-----------4-------4-----|-----4-5-7-4-----4-------|-------------6-7---6---0-| 
|-------------------------|-2-----------5-6---5-----|---------------------6---| 
|-4-6-4-6-7---4-6-7---4-6-|---------------------6-4-|-3-----------------------| 
|-------------------------|-3-----------------------|-4-----------------------| 
|-5-----------------------|-------------------------|-------------------------| 
  Q       Q       Q         Q       Q       Q         Q       Q       Q 


  S S  S S S  S S S  S S S  S 
|---9----7-9------------------| 
|-----10-----10-7-9-10-7------| 
|------------------------7----| 
|-7------------------------11-| 
|-9---------------------------| 
|-----------------------------| 
  Q        Q         Q 


  S  S S S  S S S  S S S  S S   S S S S S S S S S S S S 
|---10-7-9-10-7------7--------|-------------------------| 
|---------------9-10---9----9-|---------6-9-----6-9-----| 
|------------------------10---|-6-8-6-8-----6-8-----6-8-| 
|-9---------------------------|-------------------------| 
|-----------------------------|-------------------------| 
|-7---------------------------|-7-----------------------| 
  Q         Q        Q          Q       Q       Q 


  S S S S S S S S S S S S   S  S S  S S  S S  S S  S S  S 
|---------4-7-----4-7-----|-----------7-10------7-10------| 
|-6-7-6-7-----6-7-----6-7-|-9-10-9-10------9-10------9-10-| 
|-------------------------|-------------------------------| 
|-------------------------|-------------------------------| 
|-------------------------|-8-----------------------------| 
|-4-----------------------|-------------------------------| 
  Q       Q       Q         Q         Q         Q 


  S  S S S  S S S  S S S  S S 
|-7-10-7------7--------7------| 
|--------9------9--------10-9-| 
|----------10-----10----------| 
|-----------------------------| 
|--------------------8--------| 
|-----------9-----------------| 
  Q         Q        Q 


  S S  S S S  S S S S S S  S 
|----------------------------| 
|---9-10-7---10-9-7---9-7----| 
|-------------------------10-| 
|----------------------------| 
|-9--------------------------| 
|----------7--------9--------| 
  Q        Q        Q 


  S S S S S S S S S S S S   S S S S S S S S S S S S 
|---1-2-----2-0-----0-----|-------------------------| 
|-------3-------3-----3-2-|---2-3-0---3-2-0---2-0---| 
|-------------------------|-----------------------2-| 
|-0-----------------------|---------3-------4-------| 
|-----------------1-------|-2-----------------------| 
|---------4---------------|-------------------------| 
  Q       Q       Q         Q       Q       Q 


  S S S S S S S S S S S S   S S S S S S S S S S S S   S S S S S S S S S S S S 
|-------------------------|-------------------------|-------------------------| 
|-----0-----0---0---0---0-|---------0---3---2---0---|---------------------2---| 
|-------------------------|-----1-2-----------------|---2-------------2-------| 
|-6-7---7-6---7---6---4---|-3-4-------3---3---3---3-|-----4-------4-----4---4-| 
|-5-----------------------|-4-----------------------|-------4---4---4---------| 
|-------------------------|-------------------------|-2-------5---------------| 
  Q       Q       Q         Q       Q       Q         Q       Q       Q 


  S S S S S S S S S S S S   S S S S S S S S S S S S   S S S S S S S S S S S S 
|-----------------1---4---|-----------------5---9---|---4-----9-8-9-8-9-4-5---| 
|-------------2-----2---0-|-------------7-----7---7-|-6---6-----------------7-| 
|---1-------1---1---------|---6-------6---6---------|-------6-----------------| 
|-3---3---3---------------|-7---7---7---------------|-------------------------| 
|-------4-----------------|-------9-----------------|-4-----------------------| 
|-------------------------|-------------------------|-------------------------| 
  W                         W                         Q       Q       Q 


  S S S S S S S S S S S S   S S S S S S S S S S S S   S S S S S S S S S S S S 
|---4-----7-6-7-6-7-4-5---|---4---------------------|-------7-7-4-5-----4-----| 
|-6---6-----------------7-|-6---6---3-2-3-2-3-------|-----2---------7-6-----0-| 
|-------6-----------------|-------6-----------1-2---|---1-----------------6---| 
|-------------------------|-----------------------4-|-3-----------------------| 
|-4-----------------------|-4-----------------------|-4-----------------------| 
|-------------------------|-------------------------|-------------------------| 
  Q       Q       Q         Q       Q       Q         Q       Q       Q 


  S S S S S S S S S S S S   S S S S S S S S S S S S   S S S S S S S S S S S S 
|-------9-9-5-7-----5-----|-------------------------|-------------------------| 
|-----7---------9-7---3-2-|---3---------------------|---------2---3-----------| 
|---6---------------------|-4---------1-------------|-2---4---------------1---| 
|-7-----------------------|-----5-4-3-----------4-6-|---4---4---4---4---4---3-| 
|-9-----------------------|-2-----------4-2---4-----|-------------2---4-------| 
|-------------------------|-----------------5-------|-------------------------| 
  Q       Q       Q         Q       Q       Q         Q       E   E   Q 


  S S S S S S S S S S S S   S S S S S S S S S S S S   S S S S S S S S S S S S 
|-------------------------|-------------------------|-----------0---0---0---0-| 
|-------------------------|-------------------------|-------------4---2---0---| 
|---2---2---2---2---2---2-|---2---2---2---2---2---2-|-------------------------| 
|-4---6---7---6---4---2---|-1---2---4---6---7---4---|-6-7-6-4-2---------------| 
|-------------------------|-2-----------------------|-------------------------| 
|-2-----------------------|-------------------------|-0-----------------------| 
  Q       Q       Q         Q       Q       Q         Q       Q       Q 


  S S S S S S S S S S S S   S S S S S S S S S S S S   S S S S S S S S S S S S 
|---0---0---0---0---0---0-|---------------------5---|-7-----------------------| 
|-----0---2---4---5-------|-4-5-4-------4-5-7-9---7-|---0---0---0---0---0---0-| 
|-3-------------------6---|-------6-4-6-------------|-------------------------| 
|-------------------------|-------------------------|-----7---6---4-----------| 
|-------------------------|-----------------0-------|-----------------7---5---| 
|-2-----------------------|-7-----------------------|-4-----------------------| 
  Q       Q       Q         Q       Q       Q         Q       Q       Q 


  S S S S S S S S S S S S   S S S S S S S S S S S S   S S S S S S S S S S S S 
|---------------------4---|-5-----------------------|---------------------2---| 
|-----------------5-7---5-|-------------------------|---------------2-4-5---4-| 
|-----------4-6-7---------|---2---2---2---2---2---2-|-----------2-4-----------| 
|-----4-6-7---------------|-----6---4---2-----------|-----2-4-6---------------| 
|-4-7---------------------|-----------------6---4---|-2-6---------------------| 
|-5---------------4-------|-2-----------------------|-4---------------2-------| 
  Q       Q       Q         Q       Q       Q         Q       Q       Q 


  S S S S S S S S S S S S   S S S S S S S S S S S S   S S S S S S S S S S S S 
|-4-----------------------|-----------0-5-4-5-0---0-|-----------2-5-4-5-2---2-| 
|-------------------------|-----2-0-2-----------2---|-----4-2-4-----------4---| 
|-------------------------|-------------------------|-------------------------| 
|---2-0-2---2---2---2---2-|---2---------------------|---4---------------------| 
|---------4---2---0-------|-0-----------------------|-2-----------------------| 
|-0-------------------4---|-------------------------|-------------------------| 
  Q       Q       Q         Q       Q       Q         Q       Q       Q 


  S S S S S S S S S S S S   S S S S S S S S S S S S   S S  S S S S S S S S S S 
|-----------0-4-2-4-0---0-|-----------0-6-4-6-0---0-|---7--------7---0---2-----| 
|-----0---0-----------0---|-----2-0-2---------------|-----11-9-7---7---4---4-2-| 
|---1---2-----------------|---3-----------------6---|-8------------------------| 
|-------------------------|-------------------------|--------------------------| 
|-2-----------------------|-2-----------------------|--------------------------| 
|-------------------------|-------------------------|-7------------------------| 
  Q       Q       Q         Q       Q       Q         Q        Q       Q 


  S S S S S S S S S S S S   S S S S S S S S S S S S   S S S S S S S S S S S S 
|---7-5-4---5---0---2-----|---5-4-----4-------0-----|---4-2-----2-------------| 
|-0-------7---7---4---4-2-|-0-----7-5---5-4-------0-|-------5-4---4-2---4-----| 
|-------------------------|-----------------6---6---|-2---------------4---4---| 
|-------------------------|-------------------------|-----------------------7-| 
|-------------------------|-6-----------------------|-----------------6-------| 
|-------------------------|---------4-------0-------|-2-----------------------| 
  Q       Q       Q         Q       Q       Q         Q       Q       Q 


  S S S S S S S S S S S S   S S S S S S S S S S S S 
|---0---------------------|---------------4-5---5---| 
|-------0---2-------------|-------2---4-7-----9---7-| 
|-----6---2---2-----2-----|-----2---4---------------| 
|-6-------------6-4---4-2-|-1-4---------------------| 
|---------4-------0-------|-2-------6---------------| 
|-0-----------------------|-----------------7-------| 
  Q       Q       Q         Q       Q       Q 


  S S S  S  S  S S S S S  S  S 
|----------12------0-----12-11-| 
|-9---9-12----12-9-------------| 
|---9------------------9-------| 
|--------------------9---------| 
|-7--------11------------------| 
|------------------------------| 
  Q         Q        Q 


   S S S S S S S S S S S S   S S S S S S S S S S S S   S S S S S S S S S S S S 
|-12-7---0---0---0---0---0-|---0-5-0---0---0---0---0-|---0-4-0---0---0---0---0-| 
|------9-------------------|-------------------------|-------------------------| 
|----------7---6---7---4---|-6-------6---4---6---2---|-4-------4---2---4---1---| 
|--------------------------|-------------------------|-------------------------| 
|--------------------------|-------------------------|-------------------------| 
|--0-----------------------|-0-----------------------|-0-----------------------| 
   Q       Q       Q         Q       Q       Q         Q       Q       Q 


  S S S S S S S S S S S S   Q.   E Q 
|---0-2-0---0---0---0---0-|-5----7-4--| 
|---------4---5---7---9---|-4------5--| 
|-2-----------------------|-4------4--| 
|-------------------------|-4------2--| 
|-------------7---6-------|-2---------| 
|-2-------------------9---|--------0--| 
  Q       E   E   E   E     Q.   E Q 


  S S S T T Q.     E     S  S  S S  S  S  S  S S  S  S  S 
|---5-4-5-2-2tr4---0--|--0-12-11-9----12----12---12----12---| 
|---------------------|------------12----10----9------------| 
|-2-------------------|-----------------------------11------| 
|-2-------------------|-------------------------------------| 
|-0---------2---------|-11----------------------------------| 
|---------------------|--0----------------------------------| 
  Q         H            Q          Q          Q 


  S S S S S S S S S S S S   S S S S S S S  S  S S S S   H. 
|-0---------0---0---0---0-|---------0---7-11-12-7---0-|-------*| 
|-------------------------|-----0-----9-----------9---|-------*| 
|---9-8-6-----------------|-------8-------------------|-------*| 
|---------9---7---6-------|---6-----------------------|-------*| 
|---------------------9---|-7-------------------------|-------*| 
|-------------------------|---------------------------|-0-----*| 
  W                         W 


Duration Legend 
--------------- 
W - whole; H - half; Q - quarter; E - 8th; S - 16th; T - 32nd; X - 64th; a - acciaccatura 
+ - note tied to previous; . - note dotted; .. - note double dotted 
Uncapitalized letters represent notes that are staccato (1/2 duration) 
Irregular groupings are notated above the duration line 
Duration letters will always appear directly above the note/fret number it represents the 
duration for.  Duration letters with no fret number below them represent rests.  Multi- 
bar rests are notated in the form Wxn, where n is the number of bars to rest for.  Low 
melody durations appear below the staff 

Tablature Legend 
---------------- 
 h   - hammer-on 
 p   - pull-off 
 b   - bend 
 pb  - pre-bend 
 r   - bend release (if no number after the r, then release immediately) 
 /\  - slide into or out of (from/to "nowhere") 
 s   - legato slide 
 S   - shift slide 
  - natural harmonic 
n  - artificial harmonic 
n(n) - tapped harmonic 
 ~   - vibrato 
 tr  - trill 
 T   - tap 
 TP  - trem. picking 
 PM  - palm muting 
\n/  - tremolo bar dip; n = amount to dip 
 \n  - tremolo bar down 
 n/  - tremolo bar up 
/n\  - tremolo bar inverted dip 
 =   - hold bend; also acts as connecting device for hammers/pulls 
 <>  - volume swell (louder/softer) 
 x   - on rhythm slash represents muted slash 
 o   - on rhythm slash represents single note slash 

Misc Legend 
----------- 
 |  - bar 
||  - double bar 
||o - repeat start 
o|| - repeat end 
*|  - double bar (ending) 
 :  - bar (freetime) 
 $  - Segno 
 &  - Coda 
Tempo markers -  = BPM(8/16=s8/s16), where s8 = swing 8ths, s16 = swing 16ths 
	  

Search Paypal
auto scroll beats size up size down change color hide chords drawings
tab show chords e-chords YouTube Clip e-chords hide all tabs e-chords go to top tab