Johann Sebastian Bach

home > Johann Sebastian B...

Sarabande From Suite N.1 For Solo Cello, Bwv 1007 Tab

Johann Sebastian Bach

Difficulty: ExpertExpert

by alexribeiro

tuner correct add songbook print version text version save to e-mail
chordsukulelecavacokeyboardtabbassdrumsharmonicsflute Guitar Pro
chords

Sarabande From Suite N.1 For Solo Cello, Bwv 1007

  		(3/4) 
(note duration) w=1, h=8/16, q=4/16, e=2/16, s=1/16, t=1/32, Q=6/16, E=3/16. 

                               3 
 q Q e  s s s s h e e  e e E t t t e e  s s s s h  e e  s s s s E     s s s 
|2-3-2-|----2-3-2-----|5---------------|---------------|------------------0-| 
|3-3---|2-5-----3-5-3-|----0-----------|2-8-7-3-2h-----|5-2-------------3---| 
|2-0---|2-------2-----|--5-0---------4-|--------2--4-2-|----2---------2-----| 
|0-0---|2-------0-----|4---0-7-5-4-5---|--------2------|2-----5-4-0-4-------| 
|0-2---|0-------0-----|----5-----------|0-------0------|4-------0-----------| 
|0-0---|--------0-----|0---5-----------|---------------|--------0-----------| 
 q Q    q       h      q   h            q       h       q       h s s 

 s s s s E     s s s s  s s s s s s s s s s s s  s s s   h 
|2---------------------|--4-5-4-5---------------|--------5---| 
|3-3-----------------2-|3-------2-5-3-2---3-2---|----0---2---| 
|2---4-2-1h----1-2-4---|4-------2-------4-----2-|--2---1-2--*| 
|0-------2-2-4---------|2-------2-------4-------|2-------2--*| 
|0---------------------|2-------0---------------|--------0-0-| 
|0-------0-------------|2---------------0-------|2-----------| 
 q       h t t          q       q       q        q     s q q 

                3 
  e s s t t s t t t t t s s s  s s s s  E  s s s s s  s s s s e s s s s s s 
|-------3-2-3-5-3-2-3-2-3-2---|2-------------------2-|----------------------| 
|-2-----2-------------------5-|3-2-3---------2-3-5---|--5-7-8-7-------0-5-2-| 
|*2-4-2-2---------------------|2-----4--3h-4---------|3-------6-9-7-6-------| 
|*2-----2---------------------|0--------4------------|4-------8-----5-------| 
|-0-----0---------------------|0---------------------|4-------------7-------| 
|-----------------------------|0--------2------------|----------------------| 
  q     h                      q        h             q             q 

 s s s s h      E t t E s s s s s  s s s s E s s s s s  q     s s s s s s s s s 
|--------------|------------------|--5-3-2-3-2--------|-----------------0-3-2---| 
|3---2---0-----|------------5-7-8-|0-------5---5-3-2--|-------------2-3-0-----3-| 
|--4---3-4-----|2-4-5-4-6-7-------|--------4---------4|-2-------2-4-------------| 
|4-------0-----|0-----0-----------|4-------2----------|-------------------------| 
|--------2-2---|5-----5-----------|--------2----------|-------------------------| 
|----4---------|4-----4-----------|1-------2----------|---4-5-2-4-------5-------| 
 e   e   q q    q     h            q       h              s s s q       q 

 s s s s h 
|--------------|| 
|--3-5-2-3-----|| 
|2-------2-----|| 
|--------4-----|| 
|0-------5-----|| 
|------------0-|| 
 q       q   q 
	  

Search Paypal
auto scroll beats size up size down change color hide chords drawings
tab show chords e-chords YouTube Clip e-chords hide all tabs e-chords go to top tab