Johann Sebastian Bach

home > Johann Sebastian B...

Bourrée In E Minor Tab

Johann Sebastian Bach

Difficulty: nolevelnolevel

by iagovillareal

tuner correct add songbook print version text version save to e-mail
chordsukulelecavacokeyboardtabbassdrumsharmonicsflute Guitar Pro
chords

Bourrée In E Minor

(Johann Sebastian Bach)

	  
Part A 

e|----2--3-2--0-----0-2----------0--------------------------------| 
B|--5------------4-------0--2-4-----3-1--0---------------0--------| 
G|-------------------------------------------2-0-----0-2---2-0----| 
D|------------------------------------------------4-------------4-| 
A|---------0-----2--0------------------------0----2--0-------2----| 
E|--3-2--0---------------3--2----0--2----3---------------3--------| 

e|-----0-2--3-2-0-----0-2---------0--------------------------| 
B|-----------------4-------0--2-4----3-1--0------------------| 
G|-------------------------------------------2--0-------0--0-| 
D|-2-----------------------------------------------4-------0-| 
A|------------0----2--0----------------------3-----5--5----2-| 
E|-0-2-3-2--0--------------3--2---0--2----3----------------3-| 


Part B 

e|------------------3----0-----------------------------------------| 
B|--0----3----1--0----3-----0-3-1--0-----------0--1--0-------------| 
G|----0-----2-------------------------2--1--2----------2-2---------| 
D|----------0----------------------0-----2--------2----------------| 
A|------------------2----3------0-----------0------------0h2-0-----| 
E|--3----2-------3----------4------------------------0---------3-2-| 

e|---------3---0-----------5----2----0--------------------------| 
B|--3---0----3----0--3--1----5-----2---3--2--------0--0---------| 
G|----2-------------------------------------4--3----------------| 
D|--0---------------------------0---------2----4----------------| 
A|---------2---3--------0--4-------1---2--------------2p1-2-4-6-| 
E|------3---------4------------------------------2--------------| 

e|--7---------0--5----3--2--0----3---------5----2---------------| 
B|----7--9--7-------5---------3-----3-6-5----5----2-5-4-0-------| 
G|--------------------------------------------------------------| 
D|----------0------------0--------------------------------------| 
A|-------7-------4--0-------3----2------3--2----0-----2---3-2-0-| 
E|--7-------------------------------3-------------2-------------| 

e|--0-----------------------------------------------------------| 
B|----0---1----3----0----1----2---------------------------------| 
G|---------------2---------0---------4--------------------------| 
D|----------2--4-------1-2-------------4--5--4-2-1-2-4-5--4-2-2-| 
A|--------0----------------------4---6-------0---2-0---2--0---2-| 
E|--4---------------3---------2-----------0-------------------0-| 
	  

there is a video lesson for this song
view full video
Search
auto scroll beats size up size down change color hide chords drawings
tab show chords e-chords YouTube Clip e-chords hide all tabs e-chords go to top tab